0
SECTION
2
HEADER
999
*** POWERPCB  HEADER ***
9
$EXTMIN
10
-8.9376366667
20
-8.9658686667
9
$EXTMAX
10
72.3109513333
20
67.0057146667
9
$FILLMODE
70
0
9
$GRIDMODE
70
1
9
$GRIDUNIT
10
0.05
20
0.05
9
$INSBASE
10
46.0662693333
20
-24.8686246667
9
$LIMCHECK
70
0
9
$PLINEWID
40
0.009906
9
$SNAPMODE
70
1
9
$SNAPUNIT
10
0.05
20
0.05
9
$TEXTSIZE
40
2.54
9
$TEXTSTYLE
7
W0$254
9
$USERI1
70
101
9
$USERI2
70
1
9
$USERI5
70
150
9
$VIEWCTR
10
-20.250642
20
26.993308
0
ENDSEC
0
SECTION
2
TABLES
999
*** POWERPCB  LTYPE ***
0
TABLE
2
LTYPE
70
4
0
LTYPE
2
CONTINUOUS
70
64
3
---
72
65
73
0
40
0
0
LTYPE
2
TRMIDX_2048
70
64
3
---
72
65
73
2
40
2
49
1
49
1
0
LTYPE
2
TRMIDX_4096
70
64
3
---
72
65
73
2
40
2
49
1
49
1
0
LTYPE
2
TRMIDX_12288
70
64
3
---
72
65
73
2
40
2
49
1
49
1
0
LTYPE
2
PADS_DASH_150000
70
64
3
PADS DASHED LINE STYLE
72
65
73
2
40
1
49
0.5
49
-0.5
0
ENDTAB
999
*** POWERPCB  LAYER ***
0
TABLE
2
LAYER
70
13
0
LAYER
2
DBLAYERS
70
1
62
-255
6
CONTINUOUS
0
LAYER
2
DIMENSION7_01
70
0
62
255
6
CONTINUOUS
0
LAYER
2
DIMENSION1_10
70
0
62
255
6
CONTINUOUS
0
LAYER
2
DIMENSION3_10
70
0
62
255
6
CONTINUOUS
0
LAYER
2
DIMENSION2_10
70
0
62
255
6
CONTINUOUS
0
LAYER
2
DIMENSION4_10
70
0
62
255
6
CONTINUOUS
0
LAYER
2
DIMENSION5_10
70
0
62
255
6
CONTINUOUS
0
LAYER
2
DIMENSION6_10
70
0
62
255
6
CONTINUOUS
0
LAYER
2
TEXT_10
70
0
62
6
6
CONTINUOUS
0
LAYER
2
DIMENSION7_10
70
0
62
255
6
CONTINUOUS
0
LAYER
2
2D_LINE_10
70
0
62
6
6
CONTINUOUS
0
LAYER
2
2D_LINE_00
70
0
62
255
6
CONTINUOUS
0
LAYER
2
PCB_PARAMS
70
1
62
-255
6
CONTINUOUS
0
ENDTAB
999
*** POWERPCB  TEXT STYLE ***
0
TABLE
2
STYLE
70
1
0
STYLE
2
W0$254
70
64
40
0
41
0.75
42
0
50
0
71
0
3
simplex
0
ENDTAB
0
ENDSEC
0
SECTION
2
BLOCKS
999
*** POWERPCB  DBLAYER ***
0
BLOCK
2
DBLAYERS
8
0
10
0
20
0
3
DBLAYERS
70
64
0
TEXT
8
DBLAYERS
10
0
20
-3.048
40
1.778
1
__It__Is__Job__Name__:=CM3_V1.1_20210705.pcb
999
 *  1.Number             2.Type                  3.RouteColor
999
 *  4.ViaColor           5.PadColor              6.CopperColor
999
 *  7.2DLineColor        8.TextColor             9.ErrorColor
999
 * 10.TopComponentColor 11.BottomComponentColor 12.RoutingDirection
999
 * 13.LayerThickness    14.CopperThickness      15.Dielectric
999
 * 16.IsRouteable       17.IsVisible            18.IsSelectable
999
 * 19.IsPrepreg         20.AssSilkScreen        21.AssPasteMask
999
 * 22.AssSolderMask     23.AssAssembly
0
TEXT
8
DBLAYERS
10
0
20
-6.096
40
1.778
1
TOP:=1 1 2 2 2 2 15 15 12 7 21 0 304800 45720 4.5 1 1 1 1 126 123 121 127 0 1 1 13 12 28 12 
0
TEXT
8
DBLAYERS
10
0
20
-9.144
40
1.778
1
BOTTOM:=10 1 6 6 6 6 13 13 15 0 21 1 38100 45720 1 1 1 1 1 129 122 128 130 0 1 1 11 9 27 9 
0
ENDBLK
999
*** POWERPCB  BOARD ***
999
*** POWERPCB  2DLINE ***
0
BLOCK
2
D_1dfeghi_132
8
0
10
0
20
0
3
D_1dfeghi_132
70
64
0
POLYLINE
8
DIMENSION7_01
6
TRMIDX_2048
66
1
40
0.0254
41
0.0254
0
VERTEX
8
DIMENSION7_01
10
-3.8087233333
20
-7.3192566667
0
VERTEX
8
DIMENSION7_01
10
-3.8080566667
20
-7.3192566667
0
SEQEND
0
POLYLINE
8
DIMENSION7_01
6
TRMIDX_2048
66
1
40
0.0254
41
0.0254
0
VERTEX
8
DIMENSION7_01
10
16.3
20
-8.95
0
VERTEX
8
DIMENSION7_01
10
16.3006666667
20
-8.95
0
SEQEND
0
POLYLINE
8
DIMENSION1_10
6
TRMIDX_2048
66
1
40
0.254
41
0.254
0
VERTEX
8
DIMENSION1_10
10
-3.8087233333
20
4.339458
0
VERTEX
8
DIMENSION1_10
10
1.7890926667
20
4.339458
0
SEQEND
0
POLYLINE
8
DIMENSION3_10
6
TRMIDX_2048
66
1
40
0.254
41
0.254
70
1
0
VERTEX
8
DIMENSION3_10
10
-3.8087233333
20
4.339458
0
VERTEX
8
DIMENSION3_10
10
-1.268724
20
4.974458
0
VERTEX
8
DIMENSION3_10
10
-1.268724
20
3.704458
0
SEQEND
0
POLYLINE
8
DIMENSION2_10
6
TRMIDX_2048
66
1
40
0.254
41
0.254
0
VERTEX
8
DIMENSION2_10
10
16.3
20
4.339458
0
VERTEX
8
DIMENSION2_10
10
10.7021833333
20
4.339458
0
SEQEND
0
POLYLINE
8
DIMENSION4_10
6
TRMIDX_2048
66
1
40
0.254
41
0.254
70
1
0
VERTEX
8
DIMENSION4_10
10
16.3
20
4.339458
0
VERTEX
8
DIMENSION4_10
10
13.7600006667
20
3.704458
0
VERTEX
8
DIMENSION4_10
10
13.7600006667
20
4.974458
0
SEQEND
0
POLYLINE
8
DIMENSION5_10
6
TRMIDX_2048
66
1
40
0.254
41
0.254
0
VERTEX
8
DIMENSION5_10
10
-3.8087233333
20
-6.0492566667
0
VERTEX
8
DIMENSION5_10
10
-3.8087233333
20
5.609458
0
SEQEND
0
POLYLINE
8
DIMENSION6_10
6
TRMIDX_2048
66
1
40
0.254
41
0.254
0
VERTEX
8
DIMENSION6_10
10
16.3
20
-7.68
0
VERTEX
8
DIMENSION6_10
10
16.3
20
5.609458
0
SEQEND
0
TEXT
8
TEXT_10
10
2.5510926667
20
3.386958
40
1.778
1
20.1mm
41
0.75
7
W0$254
0
ENDBLK
0
BLOCK
2
D_1dfeghi_133
8
0
10
0
20
0
3
D_1dfeghi_133
70
64
0
POLYLINE
8
DIMENSION7_01
6
TRMIDX_2048
66
1
40
0.0254
41
0.0254
0
VERTEX
8
DIMENSION7_01
10
-3.0512766667
20
2.5692566667
0
VERTEX
8
DIMENSION7_01
10
-3.05061
20
2.5692566667
0
SEQEND
0
POLYLINE
8
DIMENSION7_01
6
TRMIDX_2048
66
1
40
0.0254
41
0.0254
0
VERTEX
8
DIMENSION7_01
10
37
20
13.1
0
VERTEX
8
DIMENSION7_01
10
37.0006666667
20
13.1
0
SEQEND
0
POLYLINE
8
DIMENSION1_10
6
TRMIDX_2048
66
1
40
0.254
41
0.254
0
VERTEX
8
DIMENSION1_10
10
-3.0512766667
20
-2.7807433333
0
VERTEX
8
DIMENSION1_10
10
12.4889526667
20
-2.7807433333
0
SEQEND
0
POLYLINE
8
DIMENSION3_10
6
TRMIDX_2048
66
1
40
0.254
41
0.254
70
1
0
VERTEX
8
DIMENSION3_10
10
-3.0512766667
20
-2.7807433333
0
VERTEX
8
DIMENSION3_10
10
-0.511278
20
-2.1457433333
0
VERTEX
8
DIMENSION3_10
10
-0.511278
20
-3.4157433333
0
SEQEND
0
POLYLINE
8
DIMENSION2_10
6
TRMIDX_2048
66
1
40
0.254
41
0.254
0
VERTEX
8
DIMENSION2_10
10
37
20
-2.7807433333
0
VERTEX
8
DIMENSION2_10
10
21.4597706667
20
-2.7807433333
0
SEQEND
0
POLYLINE
8
DIMENSION4_10
6
TRMIDX_2048
66
1
40
0.254
41
0.254
70
1
0
VERTEX
8
DIMENSION4_10
10
37
20
-2.7807433333
0
VERTEX
8
DIMENSION4_10
10
34.4600013333
20
-3.4157433333
0
VERTEX
8
DIMENSION4_10
10
34.4600013333
20
-2.1457433333
0
SEQEND
0
POLYLINE
8
DIMENSION5_10
6
TRMIDX_2048
66
1
40
0.254
41
0.254
0
VERTEX
8
DIMENSION5_10
10
-3.0512766667
20
1.2992566667
0
VERTEX
8
DIMENSION5_10
10
-3.0512766667
20
-4.0507433333
0
SEQEND
0
POLYLINE
8
DIMENSION6_10
6
TRMIDX_2048
66
1
40
0.254
41
0.254
0
VERTEX
8
DIMENSION6_10
10
37
20
11.83
0
VERTEX
8
DIMENSION6_10
10
37
20
-4.0507433333
0
SEQEND
0
TEXT
8
TEXT_10
10
13.2509526667
20
-3.7332433333
40
1.778
1
40.1mm
41
0.75
7
W0$254
0
ENDBLK
0
BLOCK
2
D_2dfeghi_134
8
0
10
0
20
0
3
D_2dfeghi_134
70
64
0
POLYLINE
8
DIMENSION7_01
6
TRMIDX_4096
66
1
40
0.0254
41
0.0254
0
VERTEX
8
DIMENSION7_01
10
-13.9311866667
20
1.4992866667
0
VERTEX
8
DIMENSION7_01
10
-13.93052
20
1.4992866667
0
SEQEND
0
POLYLINE
8
DIMENSION7_01
6
TRMIDX_4096
66
1
40
0.0254
41
0.0254
0
VERTEX
8
DIMENSION7_01
10
-2.0811866667
20
4.9492866667
0
VERTEX
8
DIMENSION7_01
10
-2.08052
20
4.9492866667
0
SEQEND
0
POLYLINE
8
DIMENSION1_10
6
TRMIDX_4096
66
1
40
0.254
41
0.254
0
VERTEX
8
DIMENSION1_10
10
1.0188133333
20
1.4992866667
0
VERTEX
8
DIMENSION1_10
10
1.0188133333
20
-2.3107133333
0
SEQEND
0
POLYLINE
8
DIMENSION3_10
6
TRMIDX_4096
66
1
40
0.254
41
0.254
70
1
0
VERTEX
8
DIMENSION3_10
10
1.0188133333
20
1.4992866667
0
VERTEX
8
DIMENSION3_10
10
1.6538133333
20
-1.0407133333
0
VERTEX
8
DIMENSION3_10
10
0.3838133333
20
-1.0407133333
0
SEQEND
0
POLYLINE
8
DIMENSION2_10
6
TRMIDX_4096
66
1
40
0.254
41
0.254
0
VERTEX
8
DIMENSION2_10
10
1.0188133333
20
4.9492866667
0
VERTEX
8
DIMENSION2_10
10
1.0188133333
20
8.7592866667
0
SEQEND
0
POLYLINE
8
DIMENSION4_10
6
TRMIDX_4096
66
1
40
0.254
41
0.254
70
1
0
VERTEX
8
DIMENSION4_10
10
1.0188133333
20
4.9492866667
0
VERTEX
8
DIMENSION4_10
10
0.3838133333
20
7.4892866667
0
VERTEX
8
DIMENSION4_10
10
1.6538133333
20
7.4892866667
0
SEQEND
0
POLYLINE
8
DIMENSION5_10
6
TRMIDX_4096
66
1
40
0.254
41
0.254
0
VERTEX
8
DIMENSION5_10
10
-12.6611866667
20
1.4992866667
0
VERTEX
8
DIMENSION5_10
10
2.54
20
1.4992866667
0
SEQEND
0
POLYLINE
8
DIMENSION6_10
6
TRMIDX_4096
66
1
40
0.254
41
0.254
0
VERTEX
8
DIMENSION6_10
10
-0.8111866667
20
4.9492866667
0
VERTEX
8
DIMENSION6_10
10
2.54
20
4.9492866667
0
SEQEND
0
TEXT
8
TEXT_10
10
-6.3818233333
20
7.8067866667
40
1.778
1
3.5mm
41
0.75
7
W0$254
0
ENDBLK
0
BLOCK
2
D_2dfeghi_135
8
0
10
0
20
0
3
D_2dfeghi_135
70
64
0
POLYLINE
8
DIMENSION7_10
6
TRMIDX_4096
66
1
40
0.0254
41
0.0254
0
VERTEX
8
DIMENSION7_10
10
-5.8781373333
20
26.739458
0
VERTEX
8
DIMENSION7_10
10
-5.8774706667
20
26.739458
0
SEQEND
0
POLYLINE
8
DIMENSION7_10
6
TRMIDX_4096
66
1
40
0.0254
41
0.0254
0
VERTEX
8
DIMENSION7_10
10
-3.2068606667
20
48.5702013333
0
VERTEX
8
DIMENSION7_10
10
-3.206194
20
48.5702013333
0
SEQEND
0
POLYLINE
8
DIMENSION1_10
6
TRMIDX_4096
66
1
40
0.254
41
0.254
0
VERTEX
8
DIMENSION1_10
10
4.7718626667
20
26.739458
0
VERTEX
8
DIMENSION1_10
10
4.7718626667
20
35.9403293333
0
SEQEND
0
POLYLINE
8
DIMENSION3_10
6
TRMIDX_4096
66
1
40
0.254
41
0.254
70
1
0
VERTEX
8
DIMENSION3_10
10
4.7718626667
20
26.739458
0
VERTEX
8
DIMENSION3_10
10
4.1368626667
20
29.27946
0
VERTEX
8
DIMENSION3_10
10
5.4068626667
20
29.27946
0
SEQEND
0
POLYLINE
8
DIMENSION2_10
6
TRMIDX_4096
66
1
40
0.254
41
0.254
0
VERTEX
8
DIMENSION2_10
10
4.7718626667
20
48.5702013333
0
VERTEX
8
DIMENSION2_10
10
4.7718626667
20
39.3693293333
0
SEQEND
0
POLYLINE
8
DIMENSION4_10
6
TRMIDX_4096
66
1
40
0.254
41
0.254
70
1
0
VERTEX
8
DIMENSION4_10
10
4.7718626667
20
48.5702013333
0
VERTEX
8
DIMENSION4_10
10
5.4068626667
20
46.0301993333
0
VERTEX
8
DIMENSION4_10
10
4.1368626667
20
46.0301993333
0
SEQEND
0
POLYLINE
8
DIMENSION5_10
6
TRMIDX_4096
66
1
40
0.254
41
0.254
0
VERTEX
8
DIMENSION5_10
10
-4.6081373333
20
26.739458
0
VERTEX
8
DIMENSION5_10
10
6.0418626667
20
26.739458
0
SEQEND
0
POLYLINE
8
DIMENSION6_10
6
TRMIDX_4096
66
1
40
0.254
41
0.254
0
VERTEX
8
DIMENSION6_10
10
-1.9368606667
20
48.5702013333
0
VERTEX
8
DIMENSION6_10
10
6.0418626667
20
48.5702013333
0
SEQEND
0
TEXT
8
TEXT_10
10
1.0773173333
20
36.7023293333
40
1.778
1
21.8mm
41
0.75
7
W0$254
0
ENDBLK
0
BLOCK
2
D_2dfeghi_136
8
0
10
0
20
0
3
D_2dfeghi_136
70
64
0
POLYLINE
8
DIMENSION7_01
6
TRMIDX_4096
66
1
40
0.0254
41
0.0254
0
VERTEX
8
DIMENSION7_01
10
-3.35
20
16.2
0
VERTEX
8
DIMENSION7_01
10
-3.3493333333
20
16.2
0
SEQEND
0
POLYLINE
8
DIMENSION7_01
6
TRMIDX_4096
66
1
40
0.0254
41
0.0254
0
VERTEX
8
DIMENSION7_01
10
-10.95
20
41.45
0
VERTEX
8
DIMENSION7_01
10
-10.9493333333
20
41.45
0
SEQEND
0
POLYLINE
8
DIMENSION1_10
6
TRMIDX_4096
66
1
40
0.254
41
0.254
0
VERTEX
8
DIMENSION1_10
10
4.7718626667
20
16.2
0
VERTEX
8
DIMENSION1_10
10
4.7718626667
20
27.1793033333
0
SEQEND
0
POLYLINE
8
DIMENSION3_10
6
TRMIDX_4096
66
1
40
0.254
41
0.254
70
1
0
VERTEX
8
DIMENSION3_10
10
4.7718626667
20
16.2
0
VERTEX
8
DIMENSION3_10
10
4.1368626667
20
18.740002
0
VERTEX
8
DIMENSION3_10
10
5.4068626667
20
18.740002
0
SEQEND
0
POLYLINE
8
DIMENSION2_10
6
TRMIDX_4096
66
1
40
0.254
41
0.254
0
VERTEX
8
DIMENSION2_10
10
4.7718626667
20
41.45
0
VERTEX
8
DIMENSION2_10
10
4.7718626667
20
30.6083033333
0
SEQEND
0
POLYLINE
8
DIMENSION4_10
6
TRMIDX_4096
66
1
40
0.254
41
0.254
70
1
0
VERTEX
8
DIMENSION4_10
10
4.7718626667
20
41.45
0
VERTEX
8
DIMENSION4_10
10
5.4068626667
20
38.909998
0
VERTEX
8
DIMENSION4_10
10
4.1368626667
20
38.909998
0
SEQEND
0
POLYLINE
8
DIMENSION5_10
6
TRMIDX_4096
66
1
40
0.254
41
0.254
0
VERTEX
8
DIMENSION5_10
10
-2.08
20
16.2
0
VERTEX
8
DIMENSION5_10
10
6.0418626667
20
16.2
0
SEQEND
0
POLYLINE
8
DIMENSION6_10
6
TRMIDX_4096
66
1
40
0.254
41
0.254
0
VERTEX
8
DIMENSION6_10
10
-9.68
20
41.45
0
VERTEX
8
DIMENSION6_10
10
6.0418626667
20
41.45
0
SEQEND
0
TEXT
8
TEXT_10
10
2.545478
20
27.9413033333
40
1.778
1
25.3mm
41
0.75
7
W0$254
0
ENDBLK
0
BLOCK
2
D_2dfeghi_137
8
0
10
0
20
0
3
D_2dfeghi_137
70
64
0
POLYLINE
8
DIMENSION7_01
6
TRMIDX_4096
66
1
40
0.0254
41
0.0254
0
VERTEX
8
DIMENSION7_01
10
3.8131393333
20
-2.9797986667
0
VERTEX
8
DIMENSION7_01
10
3.813806
20
-2.9797986667
0
SEQEND
0
POLYLINE
8
DIMENSION7_01
6
TRMIDX_4096
66
1
40
0.0254
41
0.0254
0
VERTEX
8
DIMENSION7_01
10
3.9631393333
20
52.0202013333
0
VERTEX
8
DIMENSION7_01
10
3.963806
20
52.0202013333
0
SEQEND
0
POLYLINE
8
DIMENSION1_10
6
TRMIDX_4096
66
1
40
0.254
41
0.254
0
VERTEX
8
DIMENSION1_10
10
-9.9868606667
20
-2.9797986667
0
VERTEX
8
DIMENSION1_10
10
-9.9868606667
20
22.8057013333
0
SEQEND
0
POLYLINE
8
DIMENSION3_10
6
TRMIDX_4096
66
1
40
0.254
41
0.254
70
1
0
VERTEX
8
DIMENSION3_10
10
-9.9868606667
20
-2.9797986667
0
VERTEX
8
DIMENSION3_10
10
-10.6218606667
20
-0.439798
0
VERTEX
8
DIMENSION3_10
10
-9.3518606667
20
-0.439798
0
SEQEND
0
POLYLINE
8
DIMENSION2_10
6
TRMIDX_4096
66
1
40
0.254
41
0.254
0
VERTEX
8
DIMENSION2_10
10
-9.9868606667
20
52.0202013333
0
VERTEX
8
DIMENSION2_10
10
-9.9868606667
20
26.2347013333
0
SEQEND
0
POLYLINE
8
DIMENSION4_10
6
TRMIDX_4096
66
1
40
0.254
41
0.254
70
1
0
VERTEX
8
DIMENSION4_10
10
-9.9868606667
20
52.0202013333
0
VERTEX
8
DIMENSION4_10
10
-9.3518606667
20
49.4802006667
0
VERTEX
8
DIMENSION4_10
10
-10.6218606667
20
49.4802006667
0
SEQEND
0
POLYLINE
8
DIMENSION5_10
6
TRMIDX_4096
66
1
40
0.254
41
0.254
0
VERTEX
8
DIMENSION5_10
10
2.5431393333
20
-2.9797986667
0
VERTEX
8
DIMENSION5_10
10
-11.2568606667
20
-2.9797986667
0
SEQEND
0
POLYLINE
8
DIMENSION6_10
6
TRMIDX_4096
66
1
40
0.254
41
0.254
0
VERTEX
8
DIMENSION6_10
10
2.6931393333
20
52.0202013333
0
VERTEX
8
DIMENSION6_10
10
-11.2568606667
20
52.0202013333
0
SEQEND
0
TEXT
8
TEXT_10
10
-13.998906
20
23.5677013333
40
1.778
1
55.0mm
41
0.75
7
W0$254
0
ENDBLK
0
BLOCK
2
D_2dfeghi_138
8
0
10
0
20
0
3
D_2dfeghi_138
70
64
0
POLYLINE
8
DIMENSION7_01
6
TRMIDX_4096
66
1
40
0.0254
41
0.0254
0
VERTEX
8
DIMENSION7_01
10
-0.0368606667
20
24.4702013333
0
VERTEX
8
DIMENSION7_01
10
-0.036194
20
24.4702013333
0
SEQEND
0
POLYLINE
8
DIMENSION7_01
6
TRMIDX_4096
66
1
40
0.0254
41
0.0254
0
VERTEX
8
DIMENSION7_01
10
0.1631393333
20
51.9702013333
0
VERTEX
8
DIMENSION7_01
10
0.163806
20
51.9702013333
0
SEQEND
0
POLYLINE
8
DIMENSION1_10
6
TRMIDX_4096
66
1
40
0.254
41
0.254
0
VERTEX
8
DIMENSION1_10
10
18.7631393333
20
24.4702013333
0
VERTEX
8
DIMENSION1_10
10
18.7631393333
20
33.0967886667
0
SEQEND
0
POLYLINE
8
DIMENSION3_10
6
TRMIDX_4096
66
1
40
0.254
41
0.254
70
1
0
VERTEX
8
DIMENSION3_10
10
18.7631393333
20
24.4702013333
0
VERTEX
8
DIMENSION3_10
10
18.1281393333
20
27.010202
0
VERTEX
8
DIMENSION3_10
10
19.3981393333
20
27.010202
0
SEQEND
0
POLYLINE
8
DIMENSION2_10
6
TRMIDX_4096
66
1
40
0.254
41
0.254
0
VERTEX
8
DIMENSION2_10
10
18.7631393333
20
51.9702013333
0
VERTEX
8
DIMENSION2_10
10
18.7631393333
20
36.5257886667
0
SEQEND
0
POLYLINE
8
DIMENSION4_10
6
TRMIDX_4096
66
1
40
0.254
41
0.254
70
1
0
VERTEX
8
DIMENSION4_10
10
18.7631393333
20
51.9702013333
0
VERTEX
8
DIMENSION4_10
10
19.3981393333
20
49.4302006667
0
VERTEX
8
DIMENSION4_10
10
18.1281393333
20
49.4302006667
0
SEQEND
0
POLYLINE
8
DIMENSION5_10
6
TRMIDX_4096
66
1
40
0.254
41
0.254
0
VERTEX
8
DIMENSION5_10
10
1.2331393333
20
24.4702013333
0
VERTEX
8
DIMENSION5_10
10
20.0331393333
20
24.4702013333
0
SEQEND
0
POLYLINE
8
DIMENSION6_10
6
TRMIDX_4096
66
1
40
0.254
41
0.254
0
VERTEX
8
DIMENSION6_10
10
1.4331393333
20
51.9702013333
0
VERTEX
8
DIMENSION6_10
10
20.0331393333
20
51.9702013333
0
SEQEND
0
TEXT
8
TEXT_10
10
15.9607273333
20
33.8587886667
40
1.778
1
27.5mm
41
0.75
7
W0$254
0
ENDBLK
0
BLOCK
2
D_1dfeghi_139
8
0
10
0
20
0
3
D_1dfeghi_139
70
64
0
POLYLINE
8
DIMENSION7_01
6
TRMIDX_2048
66
1
40
0.0254
41
0.0254
0
VERTEX
8
DIMENSION7_01
10
2.1931393333
20
-2.7497986667
0
VERTEX
8
DIMENSION7_01
10
2.193806
20
-2.7497986667
0
SEQEND
0
POLYLINE
8
DIMENSION7_01
6
TRMIDX_2048
66
1
40
0.0254
41
0.0254
0
VERTEX
8
DIMENSION7_01
10
-0.7568606667
20
-15.5497986667
0
VERTEX
8
DIMENSION7_01
10
-0.756194
20
-15.5497986667
0
SEQEND
0
POLYLINE
8
DIMENSION1_10
6
TRMIDX_2048
66
1
40
0.254
41
0.254
0
VERTEX
8
DIMENSION1_10
10
2.1931393333
20
1.4002013333
0
VERTEX
8
DIMENSION1_10
10
6.003138
20
1.4002013333
0
SEQEND
0
POLYLINE
8
DIMENSION3_10
6
TRMIDX_2048
66
1
40
0.254
41
0.254
70
1
0
VERTEX
8
DIMENSION3_10
10
2.1931393333
20
1.4002013333
0
VERTEX
8
DIMENSION3_10
10
4.733138
20
2.0352013333
0
VERTEX
8
DIMENSION3_10
10
4.733138
20
0.7652013333
0
SEQEND
0
POLYLINE
8
DIMENSION2_10
6
TRMIDX_2048
66
1
40
0.254
41
0.254
0
VERTEX
8
DIMENSION2_10
10
-0.7568606667
20
1.4002013333
0
VERTEX
8
DIMENSION2_10
10
-4.5668593333
20
1.4002013333
0
SEQEND
0
POLYLINE
8
DIMENSION4_10
6
TRMIDX_2048
66
1
40
0.254
41
0.254
70
1
0
VERTEX
8
DIMENSION4_10
10
-0.7568606667
20
1.4002013333
0
VERTEX
8
DIMENSION4_10
10
-3.2968593333
20
0.7652013333
0
VERTEX
8
DIMENSION4_10
10
-3.2968593333
20
2.0352013333
0
SEQEND
0
POLYLINE
8
DIMENSION5_10
6
TRMIDX_2048
66
1
40
0.254
41
0.254
0
VERTEX
8
DIMENSION5_10
10
2.1931393333
20
-1.4797986667
0
VERTEX
8
DIMENSION5_10
10
2.1931393333
20
2.6702013333
0
SEQEND
0
POLYLINE
8
DIMENSION6_10
6
TRMIDX_2048
66
1
40
0.254
41
0.254
0
VERTEX
8
DIMENSION6_10
10
-0.7568606667
20
-14.2797986667
0
VERTEX
8
DIMENSION6_10
10
-0.7568606667
20
2.6702013333
0
SEQEND
0
TEXT
8
TEXT_10
10
-11.9097686667
20
0.4477013333
40
1.778
1
3.0mm
41
0.75
7
W0$254
0
ENDBLK
0
BLOCK
2
D_2dfeghi_140
8
0
10
0
20
0
3
D_2dfeghi_140
70
64
0
POLYLINE
8
DIMENSION7_10
6
TRMIDX_4096
66
1
40
0.0254
41
0.0254
0
VERTEX
8
DIMENSION7_10
10
-5.3068606667
20
0.5202013333
0
VERTEX
8
DIMENSION7_10
10
-5.306194
20
0.5202013333
0
SEQEND
0
POLYLINE
8
DIMENSION7_10
6
TRMIDX_4096
66
1
40
0.0254
41
0.0254
0
VERTEX
8
DIMENSION7_10
10
1.7131393333
20
26.7202013333
0
VERTEX
8
DIMENSION7_10
10
1.713806
20
26.7202013333
0
SEQEND
0
POLYLINE
8
DIMENSION1_10
6
TRMIDX_4096
66
1
40
0.254
41
0.254
0
VERTEX
8
DIMENSION1_10
10
4.794392
20
0.5202013333
0
VERTEX
8
DIMENSION1_10
10
4.794392
20
8.5854713333
0
SEQEND
0
POLYLINE
8
DIMENSION3_10
6
TRMIDX_4096
66
1
40
0.254
41
0.254
70
1
0
VERTEX
8
DIMENSION3_10
10
4.794392
20
0.5202013333
0
VERTEX
8
DIMENSION3_10
10
4.159392
20
3.060202
0
VERTEX
8
DIMENSION3_10
10
5.429392
20
3.060202
0
SEQEND
0
POLYLINE
8
DIMENSION2_10
6
TRMIDX_4096
66
1
40
0.254
41
0.254
0
VERTEX
8
DIMENSION2_10
10
4.794392
20
26.7202013333
0
VERTEX
8
DIMENSION2_10
10
4.794392
20
12.0144713333
0
SEQEND
0
POLYLINE
8
DIMENSION4_10
6
TRMIDX_4096
66
1
40
0.254
41
0.254
70
1
0
VERTEX
8
DIMENSION4_10
10
4.794392
20
26.7202013333
0
VERTEX
8
DIMENSION4_10
10
5.429392
20
24.1802006667
0
VERTEX
8
DIMENSION4_10
10
4.159392
20
24.1802006667
0
SEQEND
0
POLYLINE
8
DIMENSION5_10
6
TRMIDX_4096
66
1
40
0.254
41
0.254
0
VERTEX
8
DIMENSION5_10
10
-4.0368606667
20
0.5202013333
0
VERTEX
8
DIMENSION5_10
10
6.064392
20
0.5202013333
0
SEQEND
0
POLYLINE
8
DIMENSION6_10
6
TRMIDX_4096
66
1
40
0.254
41
0.254
0
VERTEX
8
DIMENSION6_10
10
2.9831393333
20
26.7202013333
0
VERTEX
8
DIMENSION6_10
10
6.064392
20
26.7202013333
0
SEQEND
0
TEXT
8
TEXT_10
10
0.9656106667
20
9.3474713333
40
1.778
1
26.2mm
41
0.75
7
W0$254
0
ENDBLK
0
BLOCK
2
D_1dfeghi_141
8
0
10
0
20
0
3
D_1dfeghi_141
70
64
0
POLYLINE
8
DIMENSION7_01
6
TRMIDX_2048
66
1
40
0.0254
41
0.0254
0
VERTEX
8
DIMENSION7_01
10
-0.8768606667
20
-7.1997986667
0
VERTEX
8
DIMENSION7_01
10
-0.876194
20
-7.1997986667
0
SEQEND
0
POLYLINE
8
DIMENSION7_01
6
TRMIDX_2048
66
1
40
0.0254
41
0.0254
0
VERTEX
8
DIMENSION7_01
10
-3.8268606667
20
-1.1997986667
0
VERTEX
8
DIMENSION7_01
10
-3.826194
20
-1.1997986667
0
SEQEND
0
POLYLINE
8
DIMENSION1_10
6
TRMIDX_2048
66
1
40
0.254
41
0.254
0
VERTEX
8
DIMENSION1_10
10
-0.8768606667
20
1.2502013333
0
VERTEX
8
DIMENSION1_10
10
2.933138
20
1.2502013333
0
SEQEND
0
POLYLINE
8
DIMENSION3_10
6
TRMIDX_2048
66
1
40
0.254
41
0.254
70
1
0
VERTEX
8
DIMENSION3_10
10
-0.8768606667
20
1.2502013333
0
VERTEX
8
DIMENSION3_10
10
1.663138
20
1.8852013333
0
VERTEX
8
DIMENSION3_10
10
1.663138
20
0.6152013333
0
SEQEND
0
POLYLINE
8
DIMENSION2_10
6
TRMIDX_2048
66
1
40
0.254
41
0.254
0
VERTEX
8
DIMENSION2_10
10
-3.8268606667
20
1.2502013333
0
VERTEX
8
DIMENSION2_10
10
-7.6368593333
20
1.2502013333
0
SEQEND
0
POLYLINE
8
DIMENSION4_10
6
TRMIDX_2048
66
1
40
0.254
41
0.254
70
1
0
VERTEX
8
DIMENSION4_10
10
-3.8268606667
20
1.2502013333
0
VERTEX
8
DIMENSION4_10
10
-6.3668593333
20
0.6152013333
0
VERTEX
8
DIMENSION4_10
10
-6.3668593333
20
1.8852013333
0
SEQEND
0
POLYLINE
8
DIMENSION5_10
6
TRMIDX_2048
66
1
40
0.254
41
0.254
0
VERTEX
8
DIMENSION5_10
10
-0.8768606667
20
-5.9297986667
0
VERTEX
8
DIMENSION5_10
10
-0.8768606667
20
2.5597986667
0
SEQEND
0
POLYLINE
8
DIMENSION6_10
6
TRMIDX_2048
66
1
40
0.254
41
0.254
0
VERTEX
8
DIMENSION6_10
10
-3.8268606667
20
0.0702013333
0
VERTEX
8
DIMENSION6_10
10
-3.8268606667
20
2.5597986667
0
SEQEND
0
TEXT
8
TEXT_10
10
-14.9797686667
20
0.2977013333
40
1.778
1
3.0mm
41
0.75
7
W0$254
0
ENDBLK
0
BLOCK
2
D_2dfeghi_142
8
0
10
0
20
0
3
D_2dfeghi_142
70
64
0
POLYLINE
8
DIMENSION7_01
6
TRMIDX_4096
66
1
40
0.0254
41
0.0254
0
VERTEX
8
DIMENSION7_01
10
4.07
20
-3.05
0
VERTEX
8
DIMENSION7_01
10
4.0706666667
20
-3.05
0
SEQEND
0
POLYLINE
8
DIMENSION7_01
6
TRMIDX_4096
66
1
40
0.0254
41
0.0254
0
VERTEX
8
DIMENSION7_01
10
19.77
20
24.9
0
VERTEX
8
DIMENSION7_01
10
19.7706666667
20
24.9
0
SEQEND
0
POLYLINE
8
DIMENSION1_10
6
TRMIDX_4096
66
1
40
0.254
41
0.254
0
VERTEX
8
DIMENSION1_10
10
-3.73
20
-3.05
0
VERTEX
8
DIMENSION1_10
10
-3.73
20
9.2105
0
SEQEND
0
POLYLINE
8
DIMENSION3_10
6
TRMIDX_4096
66
1
40
0.254
41
0.254
70
1
0
VERTEX
8
DIMENSION3_10
10
-3.73
20
-3.05
0
VERTEX
8
DIMENSION3_10
10
-4.365
20
-0.5099993333
0
VERTEX
8
DIMENSION3_10
10
-3.095
20
-0.5099993333
0
SEQEND
0
POLYLINE
8
DIMENSION2_10
6
TRMIDX_4096
66
1
40
0.254
41
0.254
0
VERTEX
8
DIMENSION2_10
10
-3.73
20
24.9
0
VERTEX
8
DIMENSION2_10
10
-3.73
20
12.6395
0
SEQEND
0
POLYLINE
8
DIMENSION4_10
6
TRMIDX_4096
66
1
40
0.254
41
0.254
70
1
0
VERTEX
8
DIMENSION4_10
10
-3.73
20
24.9
0
VERTEX
8
DIMENSION4_10
10
-3.095
20
22.3599993333
0
VERTEX
8
DIMENSION4_10
10
-4.365
20
22.3599993333
0
SEQEND
0
POLYLINE
8
DIMENSION5_10
6
TRMIDX_4096
66
1
40
0.254
41
0.254
0
VERTEX
8
DIMENSION5_10
10
2.8
20
-3.05
0
VERTEX
8
DIMENSION5_10
10
-5
20
-3.05
0
SEQEND
0
POLYLINE
8
DIMENSION6_10
6
TRMIDX_4096
66
1
40
0.254
41
0.254
0
VERTEX
8
DIMENSION6_10
10
18.5
20
24.9
0
VERTEX
8
DIMENSION6_10
10
-5
20
24.9
0
SEQEND
0
TEXT
8
TEXT_10
10
-7.6554546667
20
9.9725
40
1.778
1
27.9mm
41
0.75
7
W0$254
0
ENDBLK
0
BLOCK
2
D_1dfeghi_143
8
0
10
0
20
0
3
D_1dfeghi_143
70
64
0
POLYLINE
8
DIMENSION7_01
6
TRMIDX_2048
66
1
40
0.0254
41
0.0254
0
VERTEX
8
DIMENSION7_01
10
-17.0568606667
20
26.0702013333
0
VERTEX
8
DIMENSION7_01
10
-17.056194
20
26.0702013333
0
SEQEND
0
POLYLINE
8
DIMENSION7_01
6
TRMIDX_2048
66
1
40
0.0254
41
0.0254
0
VERTEX
8
DIMENSION7_01
10
-37.0568606667
20
1.8202013333
0
VERTEX
8
DIMENSION7_01
10
-37.056194
20
1.8202013333
0
SEQEND
0
POLYLINE
8
DIMENSION1_10
6
TRMIDX_2048
66
1
40
0.254
41
0.254
0
VERTEX
8
DIMENSION1_10
10
-17.0568606667
20
-6.9797986667
0
VERTEX
8
DIMENSION1_10
10
-22.340542
20
-6.9797986667
0
SEQEND
0
POLYLINE
8
DIMENSION3_10
6
TRMIDX_2048
66
1
40
0.254
41
0.254
70
1
0
VERTEX
8
DIMENSION3_10
10
-17.0568606667
20
-6.9797986667
0
VERTEX
8
DIMENSION3_10
10
-19.596862
20
-7.6147986667
0
VERTEX
8
DIMENSION3_10
10
-19.596862
20
-6.3447986667
0
SEQEND
0
POLYLINE
8
DIMENSION2_10
6
TRMIDX_2048
66
1
40
0.254
41
0.254
0
VERTEX
8
DIMENSION2_10
10
-37.0568606667
20
-6.9797986667
0
VERTEX
8
DIMENSION2_10
10
-31.7731786667
20
-6.9797986667
0
SEQEND
0
POLYLINE
8
DIMENSION4_10
6
TRMIDX_2048
66
1
40
0.254
41
0.254
70
1
0
VERTEX
8
DIMENSION4_10
10
-37.0568606667
20
-6.9797986667
0
VERTEX
8
DIMENSION4_10
10
-34.5168593333
20
-6.3447986667
0
VERTEX
8
DIMENSION4_10
10
-34.5168593333
20
-7.6147986667
0
SEQEND
0
POLYLINE
8
DIMENSION5_10
6
TRMIDX_2048
66
1
40
0.254
41
0.254
0
VERTEX
8
DIMENSION5_10
10
-17.0568606667
20
24.8002013333
0
VERTEX
8
DIMENSION5_10
10
-17.0568606667
20
-8.2497986667
0
SEQEND
0
POLYLINE
8
DIMENSION6_10
6
TRMIDX_2048
66
1
40
0.254
41
0.254
0
VERTEX
8
DIMENSION6_10
10
-37.0568606667
20
0.5502013333
0
VERTEX
8
DIMENSION6_10
10
-37.0568606667
20
-8.2497986667
0
SEQEND
0
TEXT
8
TEXT_10
10
-31.0111786667
20
-7.9322986667
40
1.778
1
20.0mm
41
0.75
7
W0$254
0
ENDBLK
0
BLOCK
2
D_1dfeghi_144
8
0
10
0
20
0
3
D_1dfeghi_144
70
64
0
POLYLINE
8
DIMENSION7_01
6
TRMIDX_2048
66
1
40
0.0254
41
0.0254
0
VERTEX
8
DIMENSION7_01
10
-2.3
20
1.7
0
VERTEX
8
DIMENSION7_01
10
-2.2993333333
20
1.7
0
SEQEND
0
POLYLINE
8
DIMENSION7_01
6
TRMIDX_2048
66
1
40
0.0254
41
0.0254
0
VERTEX
8
DIMENSION7_01
10
1.25
20
-3.7
0
VERTEX
8
DIMENSION7_01
10
1.2506666667
20
-3.7
0
SEQEND
0
POLYLINE
8
DIMENSION1_10
6
TRMIDX_2048
66
1
40
0.254
41
0.254
0
VERTEX
8
DIMENSION1_10
10
-2.3
20
2.9702013333
0
VERTEX
8
DIMENSION1_10
10
-6.1099993333
20
2.9702013333
0
SEQEND
0
POLYLINE
8
DIMENSION3_10
6
TRMIDX_2048
66
1
40
0.254
41
0.254
70
1
0
VERTEX
8
DIMENSION3_10
10
-2.3
20
2.9702013333
0
VERTEX
8
DIMENSION3_10
10
-4.8399993333
20
2.3352013333
0
VERTEX
8
DIMENSION3_10
10
-4.8399993333
20
3.6052013333
0
SEQEND
0
POLYLINE
8
DIMENSION2_10
6
TRMIDX_2048
66
1
40
0.254
41
0.254
0
VERTEX
8
DIMENSION2_10
10
1.25
20
2.9702013333
0
VERTEX
8
DIMENSION2_10
10
5.0599993333
20
2.9702013333
0
SEQEND
0
POLYLINE
8
DIMENSION4_10
6
TRMIDX_2048
66
1
40
0.254
41
0.254
70
1
0
VERTEX
8
DIMENSION4_10
10
1.25
20
2.9702013333
0
VERTEX
8
DIMENSION4_10
10
3.7899993333
20
3.6052013333
0
VERTEX
8
DIMENSION4_10
10
3.7899993333
20
2.3352013333
0
SEQEND
0
POLYLINE
8
DIMENSION5_10
6
TRMIDX_2048
66
1
40
0.254
41
0.254
0
VERTEX
8
DIMENSION5_10
10
-2.3
20
2.97
0
VERTEX
8
DIMENSION5_10
10
-2.3
20
4.2402013333
0
SEQEND
0
POLYLINE
8
DIMENSION6_10
6
TRMIDX_2048
66
1
40
0.254
41
0.254
0
VERTEX
8
DIMENSION6_10
10
1.25
20
-2.43
0
VERTEX
8
DIMENSION6_10
10
1.25
20
4.2402013333
0
SEQEND
0
TEXT
8
TEXT_10
10
5.8219993333
20
2.0177013333
40
1.778
1
3.5mm
41
0.75
7
W0$254
0
ENDBLK
0
BLOCK
2
D_2dfeghi_145
8
0
10
0
20
0
3
D_2dfeghi_145
70
64
0
POLYLINE
8
DIMENSION7_01
6
TRMIDX_4096
66
1
40
0.0254
41
0.0254
0
VERTEX
8
DIMENSION7_01
10
5.0131393333
20
48.4702013333
0
VERTEX
8
DIMENSION7_01
10
5.013806
20
48.4702013333
0
SEQEND
0
POLYLINE
8
DIMENSION7_01
6
TRMIDX_4096
66
1
40
0.0254
41
0.0254
0
VERTEX
8
DIMENSION7_01
10
3.7631393333
20
52.0202013333
0
VERTEX
8
DIMENSION7_01
10
3.763806
20
52.0202013333
0
SEQEND
0
POLYLINE
8
DIMENSION1_10
6
TRMIDX_4096
66
1
40
0.254
41
0.254
0
VERTEX
8
DIMENSION1_10
10
-3.1868606667
20
48.4702013333
0
VERTEX
8
DIMENSION1_10
10
-3.1868606667
20
44.6602006667
0
SEQEND
0
POLYLINE
8
DIMENSION3_10
6
TRMIDX_4096
66
1
40
0.254
41
0.254
70
1
0
VERTEX
8
DIMENSION3_10
10
-3.1868606667
20
48.4702013333
0
VERTEX
8
DIMENSION3_10
10
-2.5518606667
20
45.9302006667
0
VERTEX
8
DIMENSION3_10
10
-3.8218606667
20
45.9302006667
0
SEQEND
0
POLYLINE
8
DIMENSION2_10
6
TRMIDX_4096
66
1
40
0.254
41
0.254
0
VERTEX
8
DIMENSION2_10
10
-3.1868606667
20
52.0202013333
0
VERTEX
8
DIMENSION2_10
10
-3.1868606667
20
55.830202
0
SEQEND
0
POLYLINE
8
DIMENSION4_10
6
TRMIDX_4096
66
1
40
0.254
41
0.254
70
1
0
VERTEX
8
DIMENSION4_10
10
-3.1868606667
20
52.0202013333
0
VERTEX
8
DIMENSION4_10
10
-3.8218606667
20
54.560202
0
VERTEX
8
DIMENSION4_10
10
-2.5518606667
20
54.560202
0
SEQEND
0
POLYLINE
8
DIMENSION5_10
6
TRMIDX_4096
66
1
40
0.254
41
0.254
0
VERTEX
8
DIMENSION5_10
10
3.7431393333
20
48.4702013333
0
VERTEX
8
DIMENSION5_10
10
-4.4568606667
20
48.4702013333
0
SEQEND
0
POLYLINE
8
DIMENSION6_10
6
TRMIDX_4096
66
1
40
0.254
41
0.254
0
VERTEX
8
DIMENSION6_10
10
2.4931393333
20
52.0202013333
0
VERTEX
8
DIMENSION6_10
10
-4.4568606667
20
52.0202013333
0
SEQEND
0
TEXT
8
TEXT_10
10
-10.5874973333
20
54.877702
40
1.778
1
3.5mm
41
0.75
7
W0$254
0
ENDBLK
0
BLOCK
2
D_1dfeghi_146
8
0
10
0
20
0
3
D_1dfeghi_146
70
64
0
POLYLINE
8
DIMENSION7_01
6
TRMIDX_2048
66
1
40
0.0254
41
0.0254
0
VERTEX
8
DIMENSION7_01
10
2.9931393333
20
-1.0297986667
0
VERTEX
8
DIMENSION7_01
10
2.993806
20
-1.0297986667
0
SEQEND
0
POLYLINE
8
DIMENSION7_01
6
TRMIDX_2048
66
1
40
0.0254
41
0.0254
0
VERTEX
8
DIMENSION7_01
10
-0.4568606667
20
4.9202013333
0
VERTEX
8
DIMENSION7_01
10
-0.456194
20
4.9202013333
0
SEQEND
0
POLYLINE
8
DIMENSION1_10
6
TRMIDX_2048
66
1
40
0.254
41
0.254
0
VERTEX
8
DIMENSION1_10
10
2.9931393333
20
-5.3908553333
0
VERTEX
8
DIMENSION1_10
10
6.8031393333
20
-5.3908553333
0
SEQEND
0
POLYLINE
8
DIMENSION3_10
6
TRMIDX_2048
66
1
40
0.254
41
0.254
70
1
0
VERTEX
8
DIMENSION3_10
10
2.9931393333
20
-5.3908553333
0
VERTEX
8
DIMENSION3_10
10
5.5331393333
20
-4.7558553333
0
VERTEX
8
DIMENSION3_10
10
5.5331393333
20
-6.0258553333
0
SEQEND
0
POLYLINE
8
DIMENSION2_10
6
TRMIDX_2048
66
1
40
0.254
41
0.254
0
VERTEX
8
DIMENSION2_10
10
-0.4568606667
20
-5.3908553333
0
VERTEX
8
DIMENSION2_10
10
-4.2668606667
20
-5.3908553333
0
SEQEND
0
POLYLINE
8
DIMENSION4_10
6
TRMIDX_2048
66
1
40
0.254
41
0.254
70
1
0
VERTEX
8
DIMENSION4_10
10
-0.4568606667
20
-5.3908553333
0
VERTEX
8
DIMENSION4_10
10
-2.9968606667
20
-6.0258553333
0
VERTEX
8
DIMENSION4_10
10
-2.9968606667
20
-4.7558553333
0
SEQEND
0
POLYLINE
8
DIMENSION5_10
6
TRMIDX_2048
66
1
40
0.254
41
0.254
0
VERTEX
8
DIMENSION5_10
10
2.9931393333
20
-2.2997986667
0
VERTEX
8
DIMENSION5_10
10
2.9931393333
20
-6.6608553333
0
SEQEND
0
POLYLINE
8
DIMENSION6_10
6
TRMIDX_2048
66
1
40
0.254
41
0.254
0
VERTEX
8
DIMENSION6_10
10
-0.4568606667
20
3.6502013333
0
VERTEX
8
DIMENSION6_10
10
-0.4568606667
20
-6.6608553333
0
SEQEND
0
TEXT
8
TEXT_10
10
-11.6674973333
20
-6.3433553333
40
1.778
1
3.5mm
41
0.75
7
W0$254
0
ENDBLK
0
BLOCK
2
D_2dfeghi_147
8
0
10
0
20
0
3
D_2dfeghi_147
70
64
0
POLYLINE
8
DIMENSION7_01
6
TRMIDX_4096
66
1
40
0.0254
41
0.0254
0
VERTEX
8
DIMENSION7_01
10
24.25
20
-0.15
0
VERTEX
8
DIMENSION7_01
10
24.2506666667
20
-0.15
0
SEQEND
0
POLYLINE
8
DIMENSION7_01
6
TRMIDX_4096
66
1
40
0.0254
41
0.0254
0
VERTEX
8
DIMENSION7_01
10
32.15
20
3.4
0
VERTEX
8
DIMENSION7_01
10
32.1506666667
20
3.4
0
SEQEND
0
POLYLINE
8
DIMENSION1_10
6
TRMIDX_4096
66
1
40
0.254
41
0.254
0
VERTEX
8
DIMENSION1_10
10
36.3886113333
20
-0.15
0
VERTEX
8
DIMENSION1_10
10
36.3886113333
20
-3.9600006667
0
SEQEND
0
POLYLINE
8
DIMENSION3_10
6
TRMIDX_4096
66
1
40
0.254
41
0.254
70
1
0
VERTEX
8
DIMENSION3_10
10
36.3886113333
20
-0.15
0
VERTEX
8
DIMENSION3_10
10
37.0236113333
20
-2.6900006667
0
VERTEX
8
DIMENSION3_10
10
35.7536113333
20
-2.6900006667
0
SEQEND
0
POLYLINE
8
DIMENSION2_10
6
TRMIDX_4096
66
1
40
0.254
41
0.254
0
VERTEX
8
DIMENSION2_10
10
36.3886113333
20
3.4
0
VERTEX
8
DIMENSION2_10
10
36.3886113333
20
7.2100006667
0
SEQEND
0
POLYLINE
8
DIMENSION4_10
6
TRMIDX_4096
66
1
40
0.254
41
0.254
70
1
0
VERTEX
8
DIMENSION4_10
10
36.3886113333
20
3.4
0
VERTEX
8
DIMENSION4_10
10
35.7536113333
20
5.9400006667
0
VERTEX
8
DIMENSION4_10
10
37.0236113333
20
5.9400006667
0
SEQEND
0
POLYLINE
8
DIMENSION5_10
6
TRMIDX_4096
66
1
40
0.254
41
0.254
0
VERTEX
8
DIMENSION5_10
10
25.52
20
-0.15
0
VERTEX
8
DIMENSION5_10
10
37.6586113333
20
-0.15
0
SEQEND
0
POLYLINE
8
DIMENSION6_10
6
TRMIDX_4096
66
1
40
0.254
41
0.254
0
VERTEX
8
DIMENSION6_10
10
33.42
20
3.4
0
VERTEX
8
DIMENSION6_10
10
37.6586113333
20
3.4
0
SEQEND
0
TEXT
8
TEXT_10
10
34.8556246667
20
0.8627226667
40
1.778
1
3.5mm
41
0.75
7
W0$254
0
ENDBLK
0
BLOCK
2
D_6aadaea_148
8
0
10
0
20
0
3
D_6aadaea_148
70
64
0
POLYLINE
8
DIMENSION7_01
6
TRMIDX_12288
66
1
40
0.254
41
0.254
0
VERTEX
8
DIMENSION7_01
10
0
20
0
0
VERTEX
8
DIMENSION7_01
10
0.0006666667
20
0
0
SEQEND
0
POLYLINE
8
DIMENSION7_01
6
TRMIDX_12288
66
1
40
0.254
41
0.254
0
VERTEX
8
DIMENSION7_01
10
-2.1726886667
20
-2.0686766667
0
VERTEX
8
DIMENSION7_01
10
-2.172022
20
-2.0686766667
0
SEQEND
0
POLYLINE
8
DIMENSION3_10
6
TRMIDX_12288
66
1
40
0.254
41
0.254
70
1
0
VERTEX
8
DIMENSION3_10
10
-2.1726886667
20
-2.0686766667
0
VERTEX
8
DIMENSION3_10
10
-3.574362
20
-4.2800426667
0
VERTEX
8
DIMENSION3_10
10
-4.450102
20
-3.3602706667
0
SEQEND
0
POLYLINE
8
DIMENSION5_10
6
TRMIDX_12288
66
1
40
0.254
41
0.254
0
VERTEX
8
DIMENSION5_10
10
-2.1726886667
20
-2.0686766667
0
VERTEX
8
DIMENSION5_10
10
-9.4
20
-8.95
0
VERTEX
8
DIMENSION5_10
10
-11.94
20
-8.95
0
SEQEND
0
TEXT
8
TEXT_10
10
-20.6106366667
20
-9.9025
40
1.778
1
R3.0mm
41
0.75
7
W0$254
0
ENDBLK
0
BLOCK
2
D_6aadaea_149
8
0
10
0
20
0
3
D_6aadaea_149
70
64
0
POLYLINE
8
DIMENSION7_01
6
TRMIDX_12288
66
1
40
0.254
41
0.254
0
VERTEX
8
DIMENSION7_01
10
0
20
0
0
VERTEX
8
DIMENSION7_01
10
0.0006666667
20
0
0
SEQEND
0
POLYLINE
8
DIMENSION7_01
6
TRMIDX_12288
66
1
40
0.254
41
0.254
0
VERTEX
8
DIMENSION7_01
10
0.3447593333
20
2.9801246667
0
VERTEX
8
DIMENSION7_01
10
0.345426
20
2.9801246667
0
SEQEND
0
POLYLINE
8
DIMENSION3_10
6
TRMIDX_12288
66
1
40
0.254
41
0.254
70
1
0
VERTEX
8
DIMENSION3_10
10
0.3447593333
20
2.9801246667
0
VERTEX
8
DIMENSION3_10
10
0.0058633333
20
5.5762706667
0
VERTEX
8
DIMENSION3_10
10
1.2674486667
20
5.4303226667
0
SEQEND
0
POLYLINE
8
DIMENSION5_10
6
TRMIDX_12288
66
1
40
0.254
41
0.254
0
VERTEX
8
DIMENSION5_10
10
0.3447593333
20
2.9801246667
0
VERTEX
8
DIMENSION5_10
10
1.18
20
10.2
0
VERTEX
8
DIMENSION5_10
10
3.72
20
10.2
0
SEQEND
0
TEXT
8
TEXT_10
10
4.482
20
9.2475
40
1.778
1
R3.0mm
41
0.75
7
W0$254
0
ENDBLK
0
BLOCK
2
D_2dfeghi_150
8
0
10
0
20
0
3
D_2dfeghi_150
70
64
0
POLYLINE
8
DIMENSION7_10
6
TRMIDX_4096
66
1
40
0.0254
41
0.0254
0
VERTEX
8
DIMENSION7_10
10
12.7931393333
20
22.2702013333
0
VERTEX
8
DIMENSION7_10
10
12.793806
20
22.2702013333
0
SEQEND
0
POLYLINE
8
DIMENSION7_10
6
TRMIDX_4096
66
1
40
0.0254
41
0.0254
0
VERTEX
8
DIMENSION7_10
10
12.8885373333
20
43.8144393333
0
VERTEX
8
DIMENSION7_10
10
12.889204
20
43.8144393333
0
SEQEND
0
POLYLINE
8
DIMENSION1_10
6
TRMIDX_4096
66
1
40
0.254
41
0.254
0
VERTEX
8
DIMENSION1_10
10
18.7631393333
20
22.2702013333
0
VERTEX
8
DIMENSION1_10
10
18.7631393333
20
31.32782
0
SEQEND
0
POLYLINE
8
DIMENSION3_10
6
TRMIDX_4096
66
1
40
0.254
41
0.254
70
1
0
VERTEX
8
DIMENSION3_10
10
18.7631393333
20
22.2702013333
0
VERTEX
8
DIMENSION3_10
10
18.1281393333
20
24.8102026667
0
VERTEX
8
DIMENSION3_10
10
19.3981393333
20
24.8102026667
0
SEQEND
0
POLYLINE
8
DIMENSION2_10
6
TRMIDX_4096
66
1
40
0.254
41
0.254
0
VERTEX
8
DIMENSION2_10
10
18.7631393333
20
43.8144393333
0
VERTEX
8
DIMENSION2_10
10
18.7631393333
20
34.75682
0
SEQEND
0
POLYLINE
8
DIMENSION4_10
6
TRMIDX_4096
66
1
40
0.254
41
0.254
70
1
0
VERTEX
8
DIMENSION4_10
10
18.7631393333
20
43.8144393333
0
VERTEX
8
DIMENSION4_10
10
19.3981393333
20
41.274438
0
VERTEX
8
DIMENSION4_10
10
18.1281393333
20
41.274438
0
SEQEND
0
POLYLINE
8
DIMENSION5_10
6
TRMIDX_4096
66
1
40
0.254
41
0.254
0
VERTEX
8
DIMENSION5_10
10
14.0631393333
20
22.2702013333
0
VERTEX
8
DIMENSION5_10
10
20.0331393333
20
22.2702013333
0
SEQEND
0
POLYLINE
8
DIMENSION6_10
6
TRMIDX_4096
66
1
40
0.254
41
0.254
0
VERTEX
8
DIMENSION6_10
10
14.1585373333
20
43.8144393333
0
VERTEX
8
DIMENSION6_10
10
20.0331393333
20
43.8144393333
0
SEQEND
0
TEXT
8
TEXT_10
10
15.0397306667
20
32.08982
40
1.778
1
21.5mm
41
0.75
7
W0$254
0
ENDBLK
0
BLOCK
2
D_1dfeghi_151
8
0
10
0
20
0
3
D_1dfeghi_151
70
64
0
POLYLINE
8
DIMENSION7_10
6
TRMIDX_2048
66
1
40
0.0254
41
0.0254
0
VERTEX
8
DIMENSION7_10
10
-1.2268606667
20
-1.0997986667
0
VERTEX
8
DIMENSION7_10
10
-1.226194
20
-1.0997986667
0
SEQEND
0
POLYLINE
8
DIMENSION7_10
6
TRMIDX_2048
66
1
40
0.0254
41
0.0254
0
VERTEX
8
DIMENSION7_10
10
-4
20
-1.2
0
VERTEX
8
DIMENSION7_10
10
-3.9993333333
20
-1.2
0
SEQEND
0
POLYLINE
8
DIMENSION1_10
6
TRMIDX_2048
66
1
40
0.254
41
0.254
0
VERTEX
8
DIMENSION1_10
10
-1.2268606667
20
1.2502013333
0
VERTEX
8
DIMENSION1_10
10
2.5831366667
20
1.2502013333
0
SEQEND
0
POLYLINE
8
DIMENSION3_10
6
TRMIDX_2048
66
1
40
0.254
41
0.254
70
1
0
VERTEX
8
DIMENSION3_10
10
-1.2268606667
20
1.2502013333
0
VERTEX
8
DIMENSION3_10
10
1.3131366667
20
1.8852013333
0
VERTEX
8
DIMENSION3_10
10
1.3131366667
20
0.6152013333
0
SEQEND
0
POLYLINE
8
DIMENSION2_10
6
TRMIDX_2048
66
1
40
0.254
41
0.254
0
VERTEX
8
DIMENSION2_10
10
-4
20
1.2502013333
0
VERTEX
8
DIMENSION2_10
10
-7.8099973333
20
1.2502013333
0
SEQEND
0
POLYLINE
8
DIMENSION4_10
6
TRMIDX_2048
66
1
40
0.254
41
0.254
70
1
0
VERTEX
8
DIMENSION4_10
10
-4
20
1.2502013333
0
VERTEX
8
DIMENSION4_10
10
-6.5399973333
20
0.6152013333
0
VERTEX
8
DIMENSION4_10
10
-6.5399973333
20
1.8852013333
0
SEQEND
0
POLYLINE
8
DIMENSION5_10
6
TRMIDX_2048
66
1
40
0.254
41
0.254
0
VERTEX
8
DIMENSION5_10
10
-1.2268606667
20
0.1702013333
0
VERTEX
8
DIMENSION5_10
10
-1.2268606667
20
2.6297986667
0
SEQEND
0
POLYLINE
8
DIMENSION6_10
6
TRMIDX_2048
66
1
40
0.254
41
0.254
0
VERTEX
8
DIMENSION6_10
10
-4
20
0.07
0
VERTEX
8
DIMENSION6_10
10
-4
20
2.6297986667
0
SEQEND
0
TEXT
8
TEXT_10
10
-5.0096426667
20
-2.0572726667
40
1.778
1
2.8mm
41
0.75
7
W0$254
0
ENDBLK
0
BLOCK
2
D_2dfeghi_152
8
0
10
0
20
0
3
D_2dfeghi_152
70
64
0
POLYLINE
8
DIMENSION7_10
6
TRMIDX_4096
66
1
40
0.0254
41
0.0254
0
VERTEX
8
DIMENSION7_10
10
16.3431393333
20
40.7202013333
0
VERTEX
8
DIMENSION7_10
10
16.343806
20
40.7202013333
0
SEQEND
0
POLYLINE
8
DIMENSION7_10
6
TRMIDX_4096
66
1
40
0.0254
41
0.0254
0
VERTEX
8
DIMENSION7_10
10
15.7931393333
20
43.5202013333
0
VERTEX
8
DIMENSION7_10
10
15.793806
20
43.5202013333
0
SEQEND
0
POLYLINE
8
DIMENSION1_10
6
TRMIDX_4096
66
1
40
0.254
41
0.254
0
VERTEX
8
DIMENSION1_10
10
18.7631393333
20
40.7202013333
0
VERTEX
8
DIMENSION1_10
10
18.7631393333
20
36.9101993333
0
SEQEND
0
POLYLINE
8
DIMENSION3_10
6
TRMIDX_4096
66
1
40
0.254
41
0.254
70
1
0
VERTEX
8
DIMENSION3_10
10
18.7631393333
20
40.7202013333
0
VERTEX
8
DIMENSION3_10
10
19.3981393333
20
38.1801993333
0
VERTEX
8
DIMENSION3_10
10
18.1281393333
20
38.1801993333
0
SEQEND
0
POLYLINE
8
DIMENSION2_10
6
TRMIDX_4096
66
1
40
0.254
41
0.254
0
VERTEX
8
DIMENSION2_10
10
18.7631393333
20
43.5202013333
0
VERTEX
8
DIMENSION2_10
10
18.7631393333
20
47.3302033333
0
SEQEND
0
POLYLINE
8
DIMENSION4_10
6
TRMIDX_4096
66
1
40
0.254
41
0.254
70
1
0
VERTEX
8
DIMENSION4_10
10
18.7631393333
20
43.5202013333
0
VERTEX
8
DIMENSION4_10
10
18.1281393333
20
46.0602033333
0
VERTEX
8
DIMENSION4_10
10
19.3981393333
20
46.0602033333
0
SEQEND
0
POLYLINE
8
DIMENSION5_10
6
TRMIDX_4096
66
1
40
0.254
41
0.254
0
VERTEX
8
DIMENSION5_10
10
17.6131393333
20
40.7202013333
0
VERTEX
8
DIMENSION5_10
10
20.0331393333
20
40.7202013333
0
SEQEND
0
POLYLINE
8
DIMENSION6_10
6
TRMIDX_4096
66
1
40
0.254
41
0.254
0
VERTEX
8
DIMENSION6_10
10
17.0631393333
20
43.5202013333
0
VERTEX
8
DIMENSION6_10
10
20.0331393333
20
43.5202013333
0
SEQEND
0
TEXT
8
TEXT_10
10
15.3237453333
20
35.0414553333
40
1.778
1
2.8mm
41
0.75
7
W0$254
0
ENDBLK
0
BLOCK
2
D_1dfeghi_153
8
0
10
0
20
0
3
D_1dfeghi_153
70
64
0
POLYLINE
8
DIMENSION7_10
6
TRMIDX_2048
66
1
40
0.0254
41
0.0254
0
VERTEX
8
DIMENSION7_10
10
-1.8287233333
20
0.2307433333
0
VERTEX
8
DIMENSION7_10
10
-1.8280566667
20
0.2307433333
0
SEQEND
0
POLYLINE
8
DIMENSION7_10
6
TRMIDX_2048
66
1
40
0.0254
41
0.0254
0
VERTEX
8
DIMENSION7_10
10
19.6712766667
20
0.4807433333
0
VERTEX
8
DIMENSION7_10
10
19.6719433333
20
0.4807433333
0
SEQEND
0
POLYLINE
8
DIMENSION1_10
6
TRMIDX_2048
66
1
40
0.254
41
0.254
0
VERTEX
8
DIMENSION1_10
10
-1.8287233333
20
3.0456773333
0
VERTEX
8
DIMENSION1_10
10
4.435868
20
3.0456773333
0
SEQEND
0
POLYLINE
8
DIMENSION3_10
6
TRMIDX_2048
66
1
40
0.254
41
0.254
70
1
0
VERTEX
8
DIMENSION3_10
10
-1.8287233333
20
3.0456773333
0
VERTEX
8
DIMENSION3_10
10
0.7112726667
20
3.6806773333
0
VERTEX
8
DIMENSION3_10
10
0.7112726667
20
2.4106773333
0
SEQEND
0
POLYLINE
8
DIMENSION2_10
6
TRMIDX_2048
66
1
40
0.254
41
0.254
0
VERTEX
8
DIMENSION2_10
10
19.6712766667
20
3.0456773333
0
VERTEX
8
DIMENSION2_10
10
13.406686
20
3.0456773333
0
SEQEND
0
POLYLINE
8
DIMENSION4_10
6
TRMIDX_2048
66
1
40
0.254
41
0.254
70
1
0
VERTEX
8
DIMENSION4_10
10
19.6712766667
20
3.0456773333
0
VERTEX
8
DIMENSION4_10
10
17.1312806667
20
2.4106773333
0
VERTEX
8
DIMENSION4_10
10
17.1312806667
20
3.6806773333
0
SEQEND
0
POLYLINE
8
DIMENSION5_10
6
TRMIDX_2048
66
1
40
0.254
41
0.254
0
VERTEX
8
DIMENSION5_10
10
-1.8287233333
20
1.5007433333
0
VERTEX
8
DIMENSION5_10
10
-1.8287233333
20
4.3156773333
0
SEQEND
0
POLYLINE
8
DIMENSION6_10
6
TRMIDX_2048
66
1
40
0.254
41
0.254
0
VERTEX
8
DIMENSION6_10
10
19.6712766667
20
1.7507433333
0
VERTEX
8
DIMENSION6_10
10
19.6712766667
20
4.3156773333
0
SEQEND
0
TEXT
8
TEXT_10
10
5.197868
20
2.0931773333
40
1.778
1
21.5mm
41
0.75
7
W0$254
0
ENDBLK
0
BLOCK
2
D_2dfeghi_154
8
0
10
0
20
0
3
D_2dfeghi_154
70
64
0
POLYLINE
8
DIMENSION7_10
6
TRMIDX_4096
66
1
40
0.0254
41
0.0254
0
VERTEX
8
DIMENSION7_10
10
16.4931393333
20
22.0202013333
0
VERTEX
8
DIMENSION7_10
10
16.493806
20
22.0202013333
0
SEQEND
0
POLYLINE
8
DIMENSION7_10
6
TRMIDX_4096
66
1
40
0.0254
41
0.0254
0
VERTEX
8
DIMENSION7_10
10
15.7931393333
20
43.5202013333
0
VERTEX
8
DIMENSION7_10
10
15.793806
20
43.5202013333
0
SEQEND
0
POLYLINE
8
DIMENSION1_10
6
TRMIDX_4096
66
1
40
0.254
41
0.254
0
VERTEX
8
DIMENSION1_10
10
18.7631393333
20
22.0202013333
0
VERTEX
8
DIMENSION1_10
10
18.7631393333
20
33.582094
0
SEQEND
0
POLYLINE
8
DIMENSION3_10
6
TRMIDX_4096
66
1
40
0.254
41
0.254
70
1
0
VERTEX
8
DIMENSION3_10
10
18.7631393333
20
22.0202013333
0
VERTEX
8
DIMENSION3_10
10
18.1281393333
20
24.5602033333
0
VERTEX
8
DIMENSION3_10
10
19.3981393333
20
24.5602033333
0
SEQEND
0
POLYLINE
8
DIMENSION2_10
6
TRMIDX_4096
66
1
40
0.254
41
0.254
0
VERTEX
8
DIMENSION2_10
10
18.7631393333
20
43.5202013333
0
VERTEX
8
DIMENSION2_10
10
18.7631393333
20
37.011094
0
SEQEND
0
POLYLINE
8
DIMENSION4_10
6
TRMIDX_4096
66
1
40
0.254
41
0.254
70
1
0
VERTEX
8
DIMENSION4_10
10
18.7631393333
20
43.5202013333
0
VERTEX
8
DIMENSION4_10
10
19.3981393333
20
40.9801993333
0
VERTEX
8
DIMENSION4_10
10
18.1281393333
20
40.9801993333
0
SEQEND
0
POLYLINE
8
DIMENSION5_10
6
TRMIDX_4096
66
1
40
0.254
41
0.254
0
VERTEX
8
DIMENSION5_10
10
17.7631393333
20
22.0202013333
0
VERTEX
8
DIMENSION5_10
10
20.0331393333
20
22.0202013333
0
SEQEND
0
POLYLINE
8
DIMENSION6_10
6
TRMIDX_4096
66
1
40
0.254
41
0.254
0
VERTEX
8
DIMENSION6_10
10
17.0631393333
20
43.5202013333
0
VERTEX
8
DIMENSION6_10
10
20.0331393333
20
43.5202013333
0
SEQEND
0
TEXT
8
TEXT_10
10
12.1030646667
20
34.344094
40
1.778
1
21.5mm
41
0.75
7
W0$254
0
ENDBLK
0
BLOCK
2
D_1dfeghi_155
8
0
10
0
20
0
3
D_1dfeghi_155
70
64
0
POLYLINE
8
DIMENSION7_10
6
TRMIDX_2048
66
1
40
0.0254
41
0.0254
0
VERTEX
8
DIMENSION7_10
10
2.9431393333
20
-2.0297986667
0
VERTEX
8
DIMENSION7_10
10
2.943806
20
-2.0297986667
0
SEQEND
0
POLYLINE
8
DIMENSION7_10
6
TRMIDX_2048
66
1
40
0.0254
41
0.0254
0
VERTEX
8
DIMENSION7_10
10
0.1431393333
20
-2.0297986667
0
VERTEX
8
DIMENSION7_10
10
0.143806
20
-2.0297986667
0
SEQEND
0
POLYLINE
8
DIMENSION1_10
6
TRMIDX_2048
66
1
40
0.254
41
0.254
0
VERTEX
8
DIMENSION1_10
10
2.9431393333
20
-5.3908553333
0
VERTEX
8
DIMENSION1_10
10
6.7531386667
20
-5.3908553333
0
SEQEND
0
POLYLINE
8
DIMENSION3_10
6
TRMIDX_2048
66
1
40
0.254
41
0.254
70
1
0
VERTEX
8
DIMENSION3_10
10
2.9431393333
20
-5.3908553333
0
VERTEX
8
DIMENSION3_10
10
5.4831386667
20
-4.7558553333
0
VERTEX
8
DIMENSION3_10
10
5.4831386667
20
-6.0258553333
0
SEQEND
0
POLYLINE
8
DIMENSION2_10
6
TRMIDX_2048
66
1
40
0.254
41
0.254
0
VERTEX
8
DIMENSION2_10
10
0.1431393333
20
-5.3908553333
0
VERTEX
8
DIMENSION2_10
10
-3.66686
20
-5.3908553333
0
SEQEND
0
POLYLINE
8
DIMENSION4_10
6
TRMIDX_2048
66
1
40
0.254
41
0.254
70
1
0
VERTEX
8
DIMENSION4_10
10
0.1431393333
20
-5.3908553333
0
VERTEX
8
DIMENSION4_10
10
-2.39686
20
-6.0258553333
0
VERTEX
8
DIMENSION4_10
10
-2.39686
20
-4.7558553333
0
SEQEND
0
POLYLINE
8
DIMENSION5_10
6
TRMIDX_2048
66
1
40
0.254
41
0.254
0
VERTEX
8
DIMENSION5_10
10
2.9431393333
20
-3.2997986667
0
VERTEX
8
DIMENSION5_10
10
2.9431393333
20
-6.6608553333
0
SEQEND
0
POLYLINE
8
DIMENSION6_10
6
TRMIDX_2048
66
1
40
0.254
41
0.254
0
VERTEX
8
DIMENSION6_10
10
0.1431393333
20
-3.2997986667
0
VERTEX
8
DIMENSION6_10
10
0.1431393333
20
-6.6608553333
0
SEQEND
0
TEXT
8
TEXT_10
10
-2.368532
20
-8.76485
40
1.778
1
2.8mm
41
0.75
7
W0$254
0
ENDBLK
0
BLOCK
2
DRAWING_157
8
0
10
0
20
0
3
DRAWING_157
70
64
0
POLYLINE
8
2D_LINE_10
66
1
40
0.1
41
0.1
70
1
0
VERTEX
8
2D_LINE_10
10
0
20
0
0
VERTEX
8
2D_LINE_10
10
10.925
20
-10.925
0
VERTEX
8
2D_LINE_10
10
0.95
20
-20.9
0
VERTEX
8
2D_LINE_10
10
0.5
20
-20.9
0
VERTEX
8
2D_LINE_10
10
-10.225
20
-10.175
0
VERTEX
8
2D_LINE_10
10
0
20
0.05
0
SEQEND
0
INSERT
2
SMOOTH_0$1
8
2D_LINE_10
10
0
20
0
0
INSERT
2
SMOOTH_0$1
8
2D_LINE_10
10
10.925
20
-10.925
0
INSERT
2
SMOOTH_0$1
8
2D_LINE_10
10
0.95
20
-20.9
0
INSERT
2
SMOOTH_0$1
8
2D_LINE_10
10
0.5
20
-20.9
0
INSERT
2
SMOOTH_0$1
8
2D_LINE_10
10
-10.225
20
-10.175
0
INSERT
2
SMOOTH_0$1
8
2D_LINE_10
10
0
20
0.05
0
ENDBLK
0
BLOCK
2
DRAWING_161
8
0
10
0
20
0
3
DRAWING_161
70
64
0
POLYLINE
8
2D_LINE_10
66
1
40
0.0254
41
0.0254
70
1
0
VERTEX
8
2D_LINE_10
10
-3.0083213333
20
0
42
1
0
VERTEX
8
2D_LINE_10
10
3.0083213333
20
0
42
1
0
SEQEND
0
ENDBLK
0
BLOCK
2
DRAWING_162
8
0
10
0
20
0
3
DRAWING_162
70
64
0
POLYLINE
8
2D_LINE_10
66
1
40
0.0254
41
0.0254
70
1
0
VERTEX
8
2D_LINE_10
10
-1.3086246667
20
0
42
1
0
VERTEX
8
2D_LINE_10
10
1.3086246667
20
0
42
1
0
SEQEND
0
ENDBLK
0
BLOCK
2
DRAWING_163
8
0
10
0
20
0
3
DRAWING_163
70
64
0
POLYLINE
8
2D_LINE_10
66
1
40
0.0254
41
0.0254
70
1
0
VERTEX
8
2D_LINE_10
10
-3.0083213333
20
0
42
1
0
VERTEX
8
2D_LINE_10
10
3.0083213333
20
0
42
1
0
SEQEND
0
ENDBLK
0
BLOCK
2
DRAWING_164
8
0
10
0
20
0
3
DRAWING_164
70
64
0
POLYLINE
8
2D_LINE_10
66
1
40
0.0254
41
0.0254
70
1
0
VERTEX
8
2D_LINE_10
10
-1.3086246667
20
0
42
1
0
VERTEX
8
2D_LINE_10
10
1.3086246667
20
0
42
1
0
SEQEND
0
ENDBLK
0
BLOCK
2
DRAWING_165
8
0
10
0
20
0
3
DRAWING_165
70
64
0
POLYLINE
8
2D_LINE_10
66
1
40
0.0254
41
0.0254
70
1
0
VERTEX
8
2D_LINE_10
10
-3.0083213333
20
0
42
1
0
VERTEX
8
2D_LINE_10
10
3.0083213333
20
0
42
1
0
SEQEND
0
ENDBLK
0
BLOCK
2
DRAWING_166
8
0
10
0
20
0
3
DRAWING_166
70
64
0
POLYLINE
8
2D_LINE_10
66
1
40
0.0254
41
0.0254
70
1
0
VERTEX
8
2D_LINE_10
10
-1.3086246667
20
0
42
1
0
VERTEX
8
2D_LINE_10
10
1.3086246667
20
0
42
1
0
SEQEND
0
ENDBLK
0
BLOCK
2
DRAWING_167
8
0
10
0
20
0
3
DRAWING_167
70
64
0
POLYLINE
8
2D_LINE_10
66
1
40
0.0254
41
0.0254
70
1
0
VERTEX
8
2D_LINE_10
10
-3.0083213333
20
0
42
1
0
VERTEX
8
2D_LINE_10
10
3.0083213333
20
0
42
1
0
SEQEND
0
ENDBLK
0
BLOCK
2
DRAWING_168
8
0
10
0
20
0
3
DRAWING_168
70
64
0
POLYLINE
8
2D_LINE_10
66
1
40
0.0254
41
0.0254
70
1
0
VERTEX
8
2D_LINE_10
10
-1.3086246667
20
0
42
1
0
VERTEX
8
2D_LINE_10
10
1.3086246667
20
0
42
1
0
SEQEND
0
ENDBLK
0
BLOCK
2
DRAWING_169
8
0
10
0
20
0
3
DRAWING_169
70
64
0
POLYLINE
8
2D_LINE_10
66
1
40
0.0254
41
0.0254
70
1
0
VERTEX
8
2D_LINE_10
10
0
20
0
0
VERTEX
8
2D_LINE_10
10
2.85
20
0
0
VERTEX
8
2D_LINE_10
10
2.85
20
-21.55
0
VERTEX
8
2D_LINE_10
10
0
20
-21.55
0
SEQEND
0
INSERT
2
SMOOTH_0$0254
8
2D_LINE_10
10
0
20
0
0
INSERT
2
SMOOTH_0$0254
8
2D_LINE_10
10
2.85
20
0
0
INSERT
2
SMOOTH_0$0254
8
2D_LINE_10
10
2.85
20
-21.55
0
INSERT
2
SMOOTH_0$0254
8
2D_LINE_10
10
0
20
-21.55
0
ENDBLK
0
BLOCK
2
DRAWING_170
8
0
10
0
20
0
3
DRAWING_170
70
64
0
POLYLINE
8
2D_LINE_10
66
1
40
0.0254
41
0.0254
70
1
0
VERTEX
8
2D_LINE_10
10
0
20
0
0
VERTEX
8
2D_LINE_10
10
2.85
20
0
0
VERTEX
8
2D_LINE_10
10
2.85
20
-21.5
0
VERTEX
8
2D_LINE_10
10
0
20
-21.5
0
SEQEND
0
INSERT
2
SMOOTH_0$0254
8
2D_LINE_10
10
0
20
0
0
INSERT
2
SMOOTH_0$0254
8
2D_LINE_10
10
2.85
20
0
0
INSERT
2
SMOOTH_0$0254
8
2D_LINE_10
10
2.85
20
-21.5
0
INSERT
2
SMOOTH_0$0254
8
2D_LINE_10
10
0
20
-21.5
0
ENDBLK
0
BLOCK
2
DRAWING_171
8
0
10
0
20
0
3
DRAWING_171
70
64
0
POLYLINE
8
2D_LINE_10
66
1
40
0.0254
41
0.0254
70
1
0
VERTEX
8
2D_LINE_10
10
0.6
20
0
0
VERTEX
8
2D_LINE_10
10
22.1
20
0
0
VERTEX
8
2D_LINE_10
10
22.1
20
-2.8
0
VERTEX
8
2D_LINE_10
10
0.6
20
-2.8
0
SEQEND
0
INSERT
2
SMOOTH_0$0254
8
2D_LINE_10
10
0.6
20
0
0
INSERT
2
SMOOTH_0$0254
8
2D_LINE_10
10
22.1
20
0
0
INSERT
2
SMOOTH_0$0254
8
2D_LINE_10
10
22.1
20
-2.8
0
INSERT
2
SMOOTH_0$0254
8
2D_LINE_10
10
0.6
20
-2.8
0
ENDBLK
0
BLOCK
2
DRAWING_173
8
0
10
0
20
0
3
DRAWING_173
70
64
0
POLYLINE
8
2D_LINE_00
66
1
40
0.1
41
0.1
70
1
0
VERTEX
8
2D_LINE_00
10
17.110246
20
6.131488
42
-0.4142135624
0
VERTEX
8
2D_LINE_00
10
20.519506
20
9.4980026667
0
VERTEX
8
2D_LINE_00
10
53.750986
20
9.4980026667
42
-0.4142135624
0
VERTEX
8
2D_LINE_00
10
57.160246
20
6.131488
0
VERTEX
8
2D_LINE_00
10
57.160246
20
-42.031342
42
-0.4142135624
0
VERTEX
8
2D_LINE_00
10
53.750986
20
-45.523184
0
VERTEX
8
2D_LINE_00
10
20.519506
20
-45.523184
42
-0.4142135624
0
VERTEX
8
2D_LINE_00
10
17.110246
20
-42.031342
0
SEQEND
0
INSERT
2
SMOOTH_0$1
8
2D_LINE_00
10
17.110246
20
6.131488
0
INSERT
2
SMOOTH_0$1
8
2D_LINE_00
10
20.519506
20
9.4980026667
0
ENDBLK
999
*** POWERPCB  PCB PARAMETER ***
0
BLOCK
2
PCB_PARAMS
8
0
10
0
20
0
3
PCB_PARAMS
70
64
999
 *  1.Job name           2.Backupfile name       3.CursorType
999
 *  4.TearDropFlag       5.HighlighNetsFlag      6.HatchDisplayFlag
999
 *  7.PadsFlag           8.TracksFlag            9.ViasFlag
999
 * 10.CopperFlag        11.LinesFlag            12.TextFlag
999
 * 13.TopComponentFlag  14.BottomComponentFlag  16.ObjectSnapFlags
0
TEXT
8
PCB_PARAMS
10
0
20
-3.048
40
1.778
1
A:=CM3_V1.1_20210705.pcb <> 5 0 1 0 0 0 0 0 1 1 0 0 32 502 0
999
 *  1.RefDesHeight       2.RefDesWidth           3.DefaultWidth
999
 *  4.VGX                5.VGY                   6.OVR
999
 *  7.HatchGrid          8.ObjectSnapRadius
0
TEXT
8
PCB_PARAMS
10
0
20
-6.096
40
1.778
1
B:=2.54 0.254 0.1 0.05 0.05 0 0 2.54
999
 *  1.ScaleFactor        2.NetAttributeFlags     3.BackupInterval
999
 *  4.WorkingLevel       5.HatchMode             6.HatchDirection
999
 *  7.ConnectionColor    8.BackgroundColor       9.ForegroundColor
999
 * 10.BoardOutlineColor
0
TEXT
8
PCB_PARAMS
10
0
20
-9.144
40
1.778
1
C:=3.7399725914 10002 3 1 0 0 0 0 15 15
999
 * MitreAngle0 - MitreAngle6
0
TEXT
8
PCB_PARAMS
10
0
20
-12.192
40
1.778
1
D:=324000000 324000000 324000000 324000000 324000000 324000000 324000000
999
 * Hatch & Keepout Parameters
0
TEXT
8
PCB_PARAMS
10
0
20
-15.24
40
1.778
1
E:=0.5 0 0 2.54 0 1
999
 * Fanout Parameters
0
TEXT
8
PCB_PARAMS
10
0
20
-18.288
40
1.778
1
F:=0 0 6.35 1 2 0 1 1 0 0 1 1 1 1
999
 * Pad Entry Parameters
0
TEXT
8
PCB_PARAMS
10
0
20
-21.336
40
1.778
1
P:= 1 1 1 1
999
 * DFF Parameters
0
TEXT
8
PCB_PARAMS
10
0
20
-24.384
40
1.778
1
Q:=89.9999 3967 114300 114300 114300 5 4 114300 114300 114300 114300 1 114300 1 114300 1 114300 0
0
ENDBLK
999
*** POWERPCB  SMOOTH CIRCLE ***
0
BLOCK
2
SMOOTH_0$1
8
0
10
0
20
0
3
SMOOTH_0$1
70
64
0
POLYLINE
8
0
66
1
40
0.05
41
0.05
70
1
0
VERTEX
8
0
10
-0.025
20
0
42
1
0
VERTEX
8
0
10
0.025
20
0
42
1
0
SEQEND
0
ENDBLK
0
BLOCK
2
SMOOTH_0$0254
8
0
10
0
20
0
3
SMOOTH_0$0254
70
64
0
POLYLINE
8
0
66
1
40
0.0127
41
0.0127
70
1
0
VERTEX
8
0
10
-0.00635
20
0
42
1
0
VERTEX
8
0
10
0.00635
20
0
42
1
0
SEQEND
0
ENDBLK
0
ENDSEC
0
SECTION
2
ENTITIES
999
*** POWERPCB  DBLAYER ***
0
INSERT
2
DBLAYERS
8
0
10
0
20
0
999
*** POWERPCB  BOARD ***
999
*** POWERPCB  2DLINE ***
0
INSERT
2
D_1dfeghi_132
8
0
10
12.0787233333
20
61.2692566667
0
INSERT
2
D_1dfeghi_133
8
0
10
11.25
20
-4.55
0
INSERT
2
D_2dfeghi_134
8
0
10
39.65991
20
54.16997
0
INSERT
2
D_2dfeghi_135
8
0
10
48.2568606667
20
7.0797986667
0
INSERT
2
D_2dfeghi_136
8
0
10
55.02
20
17.6
0
INSERT
2
D_2dfeghi_137
8
0
10
5.7536773333
20
7.0797986667
0
INSERT
2
D_2dfeghi_138
8
0
10
48.2568606667
20
7.0797986667
0
INSERT
2
D_1dfeghi_139
8
0
10
46.0768606667
20
44.8497986667
0
INSERT
2
D_2dfeghi_140
8
0
10
48.2568606667
20
7.0797986667
0
INSERT
2
D_1dfeghi_141
8
0
10
12.0768606667
20
44.8497986667
0
INSERT
2
D_2dfeghi_142
8
0
10
8.28
20
7.1
0
INSERT
2
D_1dfeghi_143
8
0
10
45.2568606667
20
4.0797986667
0
INSERT
2
D_1dfeghi_144
8
0
10
10.57
20
57.5
0
INSERT
2
D_2dfeghi_145
8
0
10
8.2568606667
20
7.0797986667
0
INSERT
2
D_1dfeghi_146
8
0
10
45.2568606667
20
4.0797986667
0
INSERT
2
D_2dfeghi_147
8
0
10
20.55
20
4.2
0
INSERT
2
D_6aadaea_148
8
0
10
11.8
20
7.6
0
INSERT
2
D_6aadaea_149
8
0
10
44.82
20
55.55
0
INSERT
2
D_2dfeghi_150
8
0
10
-1.5431393333
20
1.0297986667
0
INSERT
2
D_1dfeghi_151
8
0
10
13.85
20
21.4
0
INSERT
2
D_2dfeghi_152
8
0
10
-2.2931393333
20
13.4797986667
0
INSERT
2
D_1dfeghi_153
8
0
10
19.5287233333
20
49.1692566667
0
INSERT
2
D_2dfeghi_154
8
0
10
24.0068606667
20
1.2797986667
0
INSERT
2
D_1dfeghi_155
8
0
10
43.8
20
26.7
0
INSERT
2
DRAWING_157
8
0
10
27.7787233333
20
42.6192566667
0
INSERT
2
DRAWING_161
8
0
10
44.8
20
7.6
0
INSERT
2
DRAWING_162
8
0
10
44.8
20
7.6
0
INSERT
2
DRAWING_163
8
0
10
11.8
20
7.6
0
INSERT
2
DRAWING_164
8
0
10
11.8
20
7.6
0
INSERT
2
DRAWING_165
8
0
10
44.8
20
55.55
0
INSERT
2
DRAWING_166
8
0
10
44.8
20
55.55
0
INSERT
2
DRAWING_167
8
0
10
11.8
20
55.55
0
INSERT
2
DRAWING_168
8
0
10
11.8
20
55.55
0
INSERT
2
DRAWING_169
8
0
10
9.8
20
44.85
0
INSERT
2
DRAWING_170
8
0
10
43.9
20
44.8
0
INSERT
2
DRAWING_171
8
0
10
17.1
20
57
0
INSERT
2
DRAWING_173
8
0
10
-8.789046
20
49.649232
999
*** POWERPCB  FREE TEXT ***
999
*** POWERPCB  PCB PARAMETER ***
0
INSERT
2
PCB_PARAMS
8
0
10
0
20
0
0
ENDSEC
0
EOF
