0
SECTION
2
HEADER
999
*** POWERPCB  HEADER ***
9
$EXTMIN
10
-23.6373053333
20
-31.4051253333
9
$EXTMAX
10
88.760182
20
26.377
9
$FILLMODE
70
0
9
$GRIDMODE
70
1
9
$GRIDUNIT
10
0.01
20
0.01
9
$INSBASE
10
-457.2
20
-457.2
9
$LIMCHECK
70
0
9
$PLINEWID
40
0.01
9
$SNAPMODE
70
1
9
$SNAPUNIT
10
0.01
20
0.01
9
$TEXTSIZE
40
2.54
9
$TEXTSTYLE
7
W0$254
9
$USERI1
70
101
9
$USERI2
70
1
9
$USERI5
70
150
9
$VIEWCTR
10
47.452296
20
-1.8567426667
0
ENDSEC
0
SECTION
2
TABLES
999
*** POWERPCB  LTYPE ***
0
TABLE
2
LTYPE
70
3
0
LTYPE
2
CONTINUOUS
70
64
3
---
72
65
73
0
40
0
0
LTYPE
2
TRMIDX_2048
70
64
3
---
72
65
73
2
40
2
49
1
49
1
0
LTYPE
2
TRMIDX_4096
70
64
3
---
72
65
73
2
40
2
49
1
49
1
0
LTYPE
2
TRMIDX_12288
70
64
3
---
72
65
73
2
40
2
49
1
49
1
0
ENDTAB
999
*** POWERPCB  LAYER ***
0
TABLE
2
LAYER
70
11
0
LAYER
2
DBLAYERS
70
1
62
-254
6
CONTINUOUS
0
LAYER
2
DIMENSION7_01
70
0
62
254
6
CONTINUOUS
0
LAYER
2
DIMENSION1_01
70
0
62
254
6
CONTINUOUS
0
LAYER
2
DIMENSION3_01
70
0
62
254
6
CONTINUOUS
0
LAYER
2
DIMENSION2_01
70
0
62
254
6
CONTINUOUS
0
LAYER
2
DIMENSION4_01
70
0
62
254
6
CONTINUOUS
0
LAYER
2
DIMENSION5_01
70
0
62
254
6
CONTINUOUS
0
LAYER
2
DIMENSION6_01
70
0
62
254
6
CONTINUOUS
0
LAYER
2
TEXT_01
70
0
62
255
6
CONTINUOUS
0
LAYER
2
2D_LINE_02
70
0
62
6
6
CONTINUOUS
0
LAYER
2
PCB_PARAMS
70
1
62
-254
6
CONTINUOUS
0
ENDTAB
999
*** POWERPCB  TEXT STYLE ***
0
TABLE
2
STYLE
70
1
0
STYLE
2
W0$254
70
64
40
0
41
0.75
42
0
50
0
71
0
3
simplex
0
ENDTAB
0
ENDSEC
0
SECTION
2
BLOCKS
999
*** POWERPCB  DBLAYER ***
0
BLOCK
2
DBLAYERS
8
0
10
0
20
0
3
DBLAYERS
70
64
0
TEXT
8
DBLAYERS
10
0
20
-3.048
40
1.778
1
__It__Is__Job__Name__:=2d尺寸图.pcb
999
 *  1.Number             2.Type                  3.RouteColor
999
 *  4.ViaColor           5.PadColor              6.CopperColor
999
 *  7.2DLineColor        8.TextColor             9.ErrorColor
999
 * 10.TopComponentColor 11.BottomComponentColor 12.RoutingDirection
999
 * 13.LayerThickness    14.CopperThickness      15.Dielectric
999
 * 16.IsRouteable       17.IsVisible            18.IsSelectable
999
 * 19.IsPrepreg         20.AssSilkScreen        21.AssPasteMask
999
 * 22.AssSolderMask     23.AssAssembly
0
TEXT
8
DBLAYERS
10
0
20
-6.096
40
1.778
1
<All Layers>:=0 0 8 8 9 25 15 15 15 8 27 2 0 0 3.2999999523 0 1 1 0 -1 -1 -1 -1 0 0 0 8 0 9 27 
0
TEXT
8
DBLAYERS
10
0
20
-9.144
40
1.778
1
Top:=1 1 9 8 9 25 15 15 15 8 0 0 381000 51435 4.3000001907 1 1 1 0 126 123 121 127 0 0 1 8 0 9 27 
0
TEXT
8
DBLAYERS
10
0
20
-12.192
40
1.778
1
Bottom:=2 1 12 8 12 28 13 13 15 0 27 1 0 51435 3.2999999523 1 1 1 0 129 122 128 130 0 0 1 27 0 12 20 
0
TEXT
8
DBLAYERS
10
0
20
-15.24
40
1.778
1
Layer_3:=3 0 0 0 0 0 0 0 0 0 0 2 0 0 0 0 0 1 0 -1 -1 -1 -1 0 0 0 0 0 0 0 
0
TEXT
8
DBLAYERS
10
0
20
-18.288
40
1.778
1
Layer_4:=4 0 0 0 0 0 0 0 0 0 0 2 0 0 0 0 0 1 0 -1 -1 -1 -1 0 0 0 0 0 0 0 
0
TEXT
8
DBLAYERS
10
0
20
-21.336
40
1.778
1
Layer_5:=5 0 0 0 0 0 0 0 0 0 0 2 0 0 0 0 0 1 0 -1 -1 -1 -1 0 0 0 0 0 0 0 
0
TEXT
8
DBLAYERS
10
0
20
-24.384
40
1.778
1
Layer_6:=6 0 0 0 0 0 0 0 0 0 0 2 0 0 0 0 0 1 0 -1 -1 -1 -1 0 0 0 0 0 0 0 
0
TEXT
8
DBLAYERS
10
0
20
-27.432
40
1.778
1
Layer_7:=7 0 0 0 0 0 0 0 0 0 0 2 0 0 0 0 0 1 0 -1 -1 -1 -1 0 0 0 0 0 0 0 
0
TEXT
8
DBLAYERS
10
0
20
-30.48
40
1.778
1
Layer_8:=8 0 0 0 0 0 0 0 0 0 0 2 0 0 0 0 0 1 0 -1 -1 -1 -1 0 0 0 0 0 0 0 
0
TEXT
8
DBLAYERS
10
0
20
-33.528
40
1.778
1
Layer_9:=9 0 0 0 0 0 0 0 0 0 0 2 0 0 0 0 0 1 0 -1 -1 -1 -1 0 0 0 0 0 0 0 
0
TEXT
8
DBLAYERS
10
0
20
-36.576
40
1.778
1
Layer_10:=10 0 0 0 0 0 0 0 0 0 0 2 0 0 0 0 0 1 0 -1 -1 -1 -1 0 0 0 0 0 0 0 
0
TEXT
8
DBLAYERS
10
0
20
-39.624
40
1.778
1
Layer_11:=11 0 0 0 0 0 0 0 0 0 0 2 0 0 0 0 0 1 0 -1 -1 -1 -1 0 0 0 0 0 0 0 
0
TEXT
8
DBLAYERS
10
0
20
-42.672
40
1.778
1
Layer_12:=12 0 0 0 0 0 0 0 0 0 0 2 0 0 0 0 0 1 0 -1 -1 -1 -1 0 0 0 0 0 0 0 
0
TEXT
8
DBLAYERS
10
0
20
-45.72
40
1.778
1
Layer_13:=13 0 0 0 0 0 0 0 0 0 0 2 0 0 0 0 0 1 0 -1 -1 -1 -1 0 0 0 0 0 0 0 
0
TEXT
8
DBLAYERS
10
0
20
-48.768
40
1.778
1
Layer_14:=14 0 0 0 0 0 0 0 0 0 0 2 0 0 0 0 0 1 0 -1 -1 -1 -1 0 0 0 0 0 0 0 
0
TEXT
8
DBLAYERS
10
0
20
-51.816
40
1.778
1
Layer_15:=15 0 0 0 0 0 0 0 0 0 0 2 0 0 0 0 0 1 0 -1 -1 -1 -1 0 0 0 0 0 0 0 
0
TEXT
8
DBLAYERS
10
0
20
-54.864
40
1.778
1
Layer_16:=16 0 0 0 0 0 0 0 0 0 0 2 0 0 0 0 0 1 0 -1 -1 -1 -1 0 0 0 0 0 0 0 
0
TEXT
8
DBLAYERS
10
0
20
-57.912
40
1.778
1
Layer_17:=17 0 0 0 0 0 0 0 0 0 0 2 0 0 0 0 0 1 0 -1 -1 -1 -1 0 0 0 0 0 0 0 
0
TEXT
8
DBLAYERS
10
0
20
-60.96
40
1.778
1
Layer_18:=18 0 0 0 0 0 0 0 0 0 0 2 0 0 0 0 0 1 0 -1 -1 -1 -1 0 0 0 0 0 0 0 
0
TEXT
8
DBLAYERS
10
0
20
-64.008
40
1.778
1
Layer_19:=19 0 0 0 0 0 0 0 0 0 0 2 0 0 0 0 0 1 0 -1 -1 -1 -1 0 0 0 0 0 0 0 
0
TEXT
8
DBLAYERS
10
0
20
-67.056
40
1.778
1
Layer_20:=20 0 0 0 0 0 0 0 0 0 0 2 0 0 0 0 0 1 0 -1 -1 -1 -1 0 0 0 0 0 0 0 
0
TEXT
8
DBLAYERS
10
0
20
-70.104
40
1.778
1
Layer_21:=21 0 0 0 0 0 0 0 0 0 0 2 0 0 0 0 0 1 0 -1 -1 -1 -1 0 0 0 0 0 0 0 
0
TEXT
8
DBLAYERS
10
0
20
-73.152
40
1.778
1
Layer_22:=22 0 0 0 0 0 0 0 0 0 0 2 0 0 0 0 0 1 0 -1 -1 -1 -1 0 0 0 0 0 0 0 
0
TEXT
8
DBLAYERS
10
0
20
-76.2
40
1.778
1
Layer_23:=23 0 0 0 0 0 0 0 0 0 0 2 0 0 0 0 0 1 0 -1 -1 -1 -1 0 0 0 0 0 0 0 
0
TEXT
8
DBLAYERS
10
0
20
-79.248
40
1.778
1
Layer_24:=24 0 0 0 0 0 0 0 0 0 0 2 0 0 0 0 0 1 0 -1 -1 -1 -1 0 0 0 0 0 0 0 
0
TEXT
8
DBLAYERS
10
0
20
-82.296
40
1.778
1
Layer_25:=25 0 0 0 0 0 0 0 0 0 0 2 0 0 0 0 0 1 0 -1 -1 -1 -1 0 0 0 0 0 0 0 
0
TEXT
8
DBLAYERS
10
0
20
-85.344
40
1.778
1
Layer_26:=26 0 0 0 0 0 0 0 0 0 0 2 0 0 0 0 0 1 0 -1 -1 -1 -1 0 0 0 0 0 0 0 
0
TEXT
8
DBLAYERS
10
0
20
-88.392
40
1.778
1
Layer_27:=27 0 0 0 0 0 0 0 0 0 0 2 0 0 0 0 0 1 0 -1 -1 -1 -1 0 0 0 0 0 0 0 
0
TEXT
8
DBLAYERS
10
0
20
-91.44
40
1.778
1
Layer_28:=28 0 0 0 0 0 0 0 0 0 0 2 0 0 0 0 0 1 0 -1 -1 -1 -1 0 0 0 0 0 0 0 
0
TEXT
8
DBLAYERS
10
0
20
-94.488
40
1.778
1
Layer_29:=29 0 0 0 0 0 0 0 0 0 0 2 0 0 0 0 0 1 0 -1 -1 -1 -1 0 0 0 0 0 0 0 
0
TEXT
8
DBLAYERS
10
0
20
-97.536
40
1.778
1
Layer_30:=30 0 0 0 0 0 0 0 0 0 0 2 0 0 0 0 0 1 0 -1 -1 -1 -1 0 0 0 0 0 0 0 
0
TEXT
8
DBLAYERS
10
0
20
-100.584
40
1.778
1
Layer_31:=31 0 0 0 0 0 0 0 0 0 0 2 0 0 0 0 0 1 0 -1 -1 -1 -1 0 0 0 0 0 0 0 
0
TEXT
8
DBLAYERS
10
0
20
-103.632
40
1.778
1
Layer_32:=32 0 0 0 0 0 0 0 0 0 0 2 0 0 0 0 0 1 0 -1 -1 -1 -1 0 0 0 0 0 0 0 
0
TEXT
8
DBLAYERS
10
0
20
-106.68
40
1.778
1
Layer_33:=33 0 0 0 0 0 0 0 0 0 0 2 0 0 0 0 0 1 0 -1 -1 -1 -1 0 0 0 0 0 0 0 
0
TEXT
8
DBLAYERS
10
0
20
-109.728
40
1.778
1
Layer_34:=34 0 0 0 0 0 0 0 0 0 0 2 0 0 0 0 0 1 0 -1 -1 -1 -1 0 0 0 0 0 0 0 
0
TEXT
8
DBLAYERS
10
0
20
-112.776
40
1.778
1
Layer_35:=35 0 0 0 0 0 0 0 0 0 0 2 0 0 0 0 0 1 0 -1 -1 -1 -1 0 0 0 0 0 0 0 
0
TEXT
8
DBLAYERS
10
0
20
-115.824
40
1.778
1
Layer_36:=36 0 0 0 0 0 0 0 0 0 0 2 0 0 0 0 0 1 0 -1 -1 -1 -1 0 0 0 0 0 0 0 
0
TEXT
8
DBLAYERS
10
0
20
-118.872
40
1.778
1
Layer_37:=37 0 0 0 0 0 0 0 0 0 0 2 0 0 0 0 0 1 0 -1 -1 -1 -1 0 0 0 0 0 0 0 
0
TEXT
8
DBLAYERS
10
0
20
-121.92
40
1.778
1
Layer_38:=38 0 0 0 0 0 0 0 0 0 0 2 0 0 0 0 0 1 0 -1 -1 -1 -1 0 0 0 0 0 0 0 
0
TEXT
8
DBLAYERS
10
0
20
-124.968
40
1.778
1
Layer_39:=39 0 0 0 0 0 0 0 0 0 0 2 0 0 0 0 0 1 0 -1 -1 -1 -1 0 0 0 0 0 0 0 
0
TEXT
8
DBLAYERS
10
0
20
-128.016
40
1.778
1
Layer_40:=40 0 0 0 0 0 0 0 0 0 0 2 0 0 0 0 0 1 0 -1 -1 -1 -1 0 0 0 0 0 0 0 
0
TEXT
8
DBLAYERS
10
0
20
-131.064
40
1.778
1
Layer_41:=41 0 0 0 0 0 0 0 0 0 0 2 0 0 0 0 0 1 0 -1 -1 -1 -1 0 0 0 0 0 0 0 
0
TEXT
8
DBLAYERS
10
0
20
-134.112
40
1.778
1
Layer_42:=42 0 0 0 0 0 0 0 0 0 0 2 0 0 0 0 0 1 0 -1 -1 -1 -1 0 0 0 0 0 0 0 
0
TEXT
8
DBLAYERS
10
0
20
-137.16
40
1.778
1
Layer_43:=43 0 0 0 0 0 0 0 0 0 0 2 0 0 0 0 0 1 0 -1 -1 -1 -1 0 0 0 0 0 0 0 
0
TEXT
8
DBLAYERS
10
0
20
-140.208
40
1.778
1
Layer_44:=44 0 0 0 0 0 0 0 0 0 0 2 0 0 0 0 0 1 0 -1 -1 -1 -1 0 0 0 0 0 0 0 
0
TEXT
8
DBLAYERS
10
0
20
-143.256
40
1.778
1
Layer_45:=45 0 0 0 0 0 0 0 0 0 0 2 0 0 0 0 0 1 0 -1 -1 -1 -1 0 0 0 0 0 0 0 
0
TEXT
8
DBLAYERS
10
0
20
-146.304
40
1.778
1
Layer_46:=46 0 0 0 0 0 0 0 0 0 0 2 0 0 0 0 0 1 0 -1 -1 -1 -1 0 0 0 0 0 0 0 
0
TEXT
8
DBLAYERS
10
0
20
-149.352
40
1.778
1
Layer_47:=47 0 0 0 0 0 0 0 0 0 0 2 0 0 0 0 0 1 0 -1 -1 -1 -1 0 0 0 0 0 0 0 
0
TEXT
8
DBLAYERS
10
0
20
-152.4
40
1.778
1
Layer_48:=48 0 0 0 0 0 0 0 0 0 0 2 0 0 0 0 0 1 0 -1 -1 -1 -1 0 0 0 0 0 0 0 
0
TEXT
8
DBLAYERS
10
0
20
-155.448
40
1.778
1
Layer_49:=49 0 0 0 0 0 0 0 0 0 0 2 0 0 0 0 0 1 0 -1 -1 -1 -1 0 0 0 0 0 0 0 
0
TEXT
8
DBLAYERS
10
0
20
-158.496
40
1.778
1
Layer_50:=50 0 0 0 0 0 0 0 0 0 0 2 0 0 0 0 0 1 0 -1 -1 -1 -1 0 0 0 0 0 0 0 
0
TEXT
8
DBLAYERS
10
0
20
-161.544
40
1.778
1
Layer_51:=51 0 0 0 0 0 0 0 0 0 0 2 0 0 0 0 0 1 0 -1 -1 -1 -1 0 0 0 0 0 0 0 
0
TEXT
8
DBLAYERS
10
0
20
-164.592
40
1.778
1
Layer_52:=52 0 0 0 0 0 0 0 0 0 0 2 0 0 0 0 0 1 0 -1 -1 -1 -1 0 0 0 0 0 0 0 
0
TEXT
8
DBLAYERS
10
0
20
-167.64
40
1.778
1
Layer_53:=53 0 0 0 0 0 0 0 0 0 0 2 0 0 0 0 0 1 0 -1 -1 -1 -1 0 0 0 0 0 0 0 
0
TEXT
8
DBLAYERS
10
0
20
-170.688
40
1.778
1
Layer_54:=54 0 0 0 0 0 0 0 0 0 0 2 0 0 0 0 0 1 0 -1 -1 -1 -1 0 0 0 0 0 0 0 
0
TEXT
8
DBLAYERS
10
0
20
-173.736
40
1.778
1
Layer_55:=55 0 0 0 0 0 0 0 0 0 0 2 0 0 0 0 0 1 0 -1 -1 -1 -1 0 0 0 0 0 0 0 
0
TEXT
8
DBLAYERS
10
0
20
-176.784
40
1.778
1
Layer_56:=56 0 0 0 0 0 0 0 0 0 0 2 0 0 0 0 0 1 0 -1 -1 -1 -1 0 0 0 0 0 0 0 
0
TEXT
8
DBLAYERS
10
0
20
-179.832
40
1.778
1
Layer_57:=57 0 0 0 0 0 0 0 0 0 0 2 0 0 0 0 0 1 0 -1 -1 -1 -1 0 0 0 0 0 0 0 
0
TEXT
8
DBLAYERS
10
0
20
-182.88
40
1.778
1
Layer_58:=58 0 0 0 0 0 0 0 0 0 0 2 0 0 0 0 0 1 0 -1 -1 -1 -1 0 0 0 0 0 0 0 
0
TEXT
8
DBLAYERS
10
0
20
-185.928
40
1.778
1
Layer_59:=59 0 0 0 0 0 0 0 0 0 0 2 0 0 0 0 0 1 0 -1 -1 -1 -1 0 0 0 0 0 0 0 
0
TEXT
8
DBLAYERS
10
0
20
-188.976
40
1.778
1
Layer_60:=60 0 0 0 0 0 0 0 0 0 0 2 0 0 0 0 0 1 0 -1 -1 -1 -1 0 0 0 0 0 0 0 
0
TEXT
8
DBLAYERS
10
0
20
-192.024
40
1.778
1
Layer_61:=61 0 0 0 0 0 0 0 0 0 0 2 0 0 0 0 0 1 0 -1 -1 -1 -1 0 0 0 0 0 0 0 
0
TEXT
8
DBLAYERS
10
0
20
-195.072
40
1.778
1
Layer_62:=62 0 0 0 0 0 0 0 0 0 0 2 0 0 0 0 0 1 0 -1 -1 -1 -1 0 0 0 0 0 0 0 
0
TEXT
8
DBLAYERS
10
0
20
-198.12
40
1.778
1
Layer_63:=63 0 0 0 0 0 0 0 0 0 0 2 0 0 0 0 0 1 0 -1 -1 -1 -1 0 0 0 0 0 0 0 
0
TEXT
8
DBLAYERS
10
0
20
-201.168
40
1.778
1
Layer_64:=64 0 0 0 0 0 0 0 0 0 0 2 0 0 0 0 0 1 0 -1 -1 -1 -1 0 0 0 0 0 0 0 
0
TEXT
8
DBLAYERS
10
0
20
-204.216
40
1.778
1
Layer_65:=65 0 0 0 0 0 0 0 0 0 0 2 0 0 0 0 0 1 0 -1 -1 -1 -1 0 0 0 0 0 0 0 
0
TEXT
8
DBLAYERS
10
0
20
-207.264
40
1.778
1
Layer_66:=66 0 0 0 0 0 0 0 0 0 0 2 0 0 0 0 0 1 0 -1 -1 -1 -1 0 0 0 0 0 0 0 
0
TEXT
8
DBLAYERS
10
0
20
-210.312
40
1.778
1
Layer_67:=67 0 0 0 0 0 0 0 0 0 0 2 0 0 0 0 0 1 0 -1 -1 -1 -1 0 0 0 0 0 0 0 
0
TEXT
8
DBLAYERS
10
0
20
-213.36
40
1.778
1
Layer_68:=68 0 0 0 0 0 0 0 0 0 0 2 0 0 0 0 0 1 0 -1 -1 -1 -1 0 0 0 0 0 0 0 
0
TEXT
8
DBLAYERS
10
0
20
-216.408
40
1.778
1
Layer_69:=69 0 0 0 0 0 0 0 0 0 0 2 0 0 0 0 0 1 0 -1 -1 -1 -1 0 0 0 0 0 0 0 
0
TEXT
8
DBLAYERS
10
0
20
-219.456
40
1.778
1
Layer_70:=70 0 0 0 0 0 0 0 0 0 0 2 0 0 0 0 0 1 0 -1 -1 -1 -1 0 0 0 0 0 0 0 
0
TEXT
8
DBLAYERS
10
0
20
-222.504
40
1.778
1
Layer_71:=71 0 0 0 0 0 0 0 0 0 0 2 0 0 0 0 0 1 0 -1 -1 -1 -1 0 0 0 0 0 0 0 
0
TEXT
8
DBLAYERS
10
0
20
-225.552
40
1.778
1
Layer_72:=72 0 0 0 0 0 0 0 0 0 0 2 0 0 0 0 0 1 0 -1 -1 -1 -1 0 0 0 0 0 0 0 
0
TEXT
8
DBLAYERS
10
0
20
-228.6
40
1.778
1
Layer_73:=73 0 0 0 0 0 0 0 0 0 0 2 0 0 0 0 0 1 0 -1 -1 -1 -1 0 0 0 0 0 0 0 
0
TEXT
8
DBLAYERS
10
0
20
-231.648
40
1.778
1
Layer_74:=74 0 0 0 0 0 0 0 0 0 0 2 0 0 0 0 0 1 0 -1 -1 -1 -1 0 0 0 0 0 0 0 
0
TEXT
8
DBLAYERS
10
0
20
-234.696
40
1.778
1
Layer_75:=75 0 0 0 0 0 0 0 0 0 0 2 0 0 0 0 0 1 0 -1 -1 -1 -1 0 0 0 0 0 0 0 
0
TEXT
8
DBLAYERS
10
0
20
-237.744
40
1.778
1
Layer_76:=76 0 0 0 0 0 0 0 0 0 0 2 0 0 0 0 0 1 0 -1 -1 -1 -1 0 0 0 0 0 0 0 
0
TEXT
8
DBLAYERS
10
0
20
-240.792
40
1.778
1
Layer_77:=77 0 0 0 0 0 0 0 0 0 0 2 0 0 0 0 0 1 0 -1 -1 -1 -1 0 0 0 0 0 0 0 
0
TEXT
8
DBLAYERS
10
0
20
-243.84
40
1.778
1
Layer_78:=78 0 0 0 0 0 0 0 0 0 0 2 0 0 0 0 0 1 0 -1 -1 -1 -1 0 0 0 0 0 0 0 
0
TEXT
8
DBLAYERS
10
0
20
-246.888
40
1.778
1
Layer_79:=79 0 0 0 0 0 0 0 0 0 0 2 0 0 0 0 0 1 0 -1 -1 -1 -1 0 0 0 0 0 0 0 
0
TEXT
8
DBLAYERS
10
0
20
-249.936
40
1.778
1
Layer_80:=80 0 0 0 0 0 0 0 0 0 0 2 0 0 0 0 0 1 0 -1 -1 -1 -1 0 0 0 0 0 0 0 
0
TEXT
8
DBLAYERS
10
0
20
-252.984
40
1.778
1
Layer_81:=81 0 0 0 0 0 0 0 0 0 0 2 0 0 0 0 0 1 0 -1 -1 -1 -1 0 0 0 0 0 0 0 
0
TEXT
8
DBLAYERS
10
0
20
-256.032
40
1.778
1
Layer_82:=82 0 0 0 0 0 0 0 0 0 0 2 0 0 0 0 0 1 0 -1 -1 -1 -1 0 0 0 0 0 0 0 
0
TEXT
8
DBLAYERS
10
0
20
-259.08
40
1.778
1
Layer_83:=83 0 0 0 0 0 0 0 0 0 0 2 0 0 0 0 0 1 0 -1 -1 -1 -1 0 0 0 0 0 0 0 
0
TEXT
8
DBLAYERS
10
0
20
-262.128
40
1.778
1
Layer_84:=84 0 0 0 0 0 0 0 0 0 0 2 0 0 0 0 0 1 0 -1 -1 -1 -1 0 0 0 0 0 0 0 
0
TEXT
8
DBLAYERS
10
0
20
-265.176
40
1.778
1
Layer_85:=85 0 0 0 0 0 0 0 0 0 0 2 0 0 0 0 0 1 0 -1 -1 -1 -1 0 0 0 0 0 0 0 
0
TEXT
8
DBLAYERS
10
0
20
-268.224
40
1.778
1
Layer_86:=86 0 0 0 0 0 0 0 0 0 0 2 0 0 0 0 0 1 0 -1 -1 -1 -1 0 0 0 0 0 0 0 
0
TEXT
8
DBLAYERS
10
0
20
-271.272
40
1.778
1
Layer_87:=87 0 0 0 0 0 0 0 0 0 0 2 0 0 0 0 0 1 0 -1 -1 -1 -1 0 0 0 0 0 0 0 
0
TEXT
8
DBLAYERS
10
0
20
-274.32
40
1.778
1
Layer_88:=88 0 0 0 0 0 0 0 0 0 0 2 0 0 0 0 0 1 0 -1 -1 -1 -1 0 0 0 0 0 0 0 
0
TEXT
8
DBLAYERS
10
0
20
-277.368
40
1.778
1
Layer_89:=89 0 0 0 0 0 0 0 0 0 0 2 0 0 0 0 0 1 0 -1 -1 -1 -1 0 0 0 0 0 0 0 
0
TEXT
8
DBLAYERS
10
0
20
-280.416
40
1.778
1
Layer_90:=90 0 0 0 0 0 0 0 0 0 0 2 0 0 0 0 0 1 0 -1 -1 -1 -1 0 0 0 0 0 0 0 
0
TEXT
8
DBLAYERS
10
0
20
-283.464
40
1.778
1
Layer_91:=91 0 0 0 0 0 0 0 0 0 0 2 0 0 0 0 0 1 0 -1 -1 -1 -1 0 0 0 0 0 0 0 
0
TEXT
8
DBLAYERS
10
0
20
-286.512
40
1.778
1
Layer_92:=92 0 0 0 0 0 0 0 0 0 0 2 0 0 0 0 0 1 0 -1 -1 -1 -1 0 0 0 0 0 0 0 
0
TEXT
8
DBLAYERS
10
0
20
-289.56
40
1.778
1
Layer_93:=93 0 0 0 0 0 0 0 0 0 0 2 0 0 0 0 0 1 0 -1 -1 -1 -1 0 0 0 0 0 0 0 
0
TEXT
8
DBLAYERS
10
0
20
-292.608
40
1.778
1
Layer_94:=94 0 0 0 0 0 0 0 0 0 0 2 0 0 0 0 0 1 0 -1 -1 -1 -1 0 0 0 0 0 0 0 
0
TEXT
8
DBLAYERS
10
0
20
-295.656
40
1.778
1
Layer_95:=95 0 0 0 0 0 0 0 0 0 0 2 0 0 0 0 0 1 0 -1 -1 -1 -1 0 0 0 0 0 0 0 
0
TEXT
8
DBLAYERS
10
0
20
-298.704
40
1.778
1
Layer_96:=96 0 0 0 0 0 0 0 0 0 0 2 0 0 0 0 0 1 0 -1 -1 -1 -1 0 0 0 0 0 0 0 
0
TEXT
8
DBLAYERS
10
0
20
-301.752
40
1.778
1
Layer_97:=97 0 0 0 0 0 0 0 0 0 0 2 0 0 0 0 0 1 0 -1 -1 -1 -1 0 0 0 0 0 0 0 
0
TEXT
8
DBLAYERS
10
0
20
-304.8
40
1.778
1
Layer_98:=98 0 0 0 0 0 0 0 0 0 0 2 0 0 0 0 0 1 0 -1 -1 -1 -1 0 0 0 0 0 0 0 
0
TEXT
8
DBLAYERS
10
0
20
-307.848
40
1.778
1
Layer_99:=99 0 0 0 0 0 0 0 0 0 0 2 0 0 0 0 0 1 0 -1 -1 -1 -1 0 0 0 0 0 0 0 
0
TEXT
8
DBLAYERS
10
0
20
-310.896
40
1.778
1
Layer_100:=100 0 0 0 0 0 0 0 0 0 0 2 0 0 0 0 0 1 0 -1 -1 -1 -1 0 0 0 0 0 0 0 
0
TEXT
8
DBLAYERS
10
0
20
-313.944
40
1.778
1
Layer_101:=101 0 0 0 0 0 0 0 0 0 0 2 0 0 0 0 0 1 0 -1 -1 -1 -1 0 0 0 0 0 0 0 
0
TEXT
8
DBLAYERS
10
0
20
-316.992
40
1.778
1
Layer_102:=102 0 0 0 0 0 0 0 0 0 0 2 0 0 0 0 0 1 0 -1 -1 -1 -1 0 0 0 0 0 0 0 
0
TEXT
8
DBLAYERS
10
0
20
-320.04
40
1.778
1
Layer_103:=103 0 0 0 0 0 0 0 0 0 0 2 0 0 0 0 1 1 0 -1 -1 -1 -1 0 0 0 0 0 0 0 
0
TEXT
8
DBLAYERS
10
0
20
-323.088
40
1.778
1
Layer_104:=104 0 0 0 0 0 0 0 0 0 0 2 0 0 0 0 1 1 0 -1 -1 -1 -1 0 0 0 0 0 0 0 
0
TEXT
8
DBLAYERS
10
0
20
-326.136
40
1.778
1
Layer_105:=105 0 0 0 0 0 0 0 0 0 0 2 0 0 0 0 1 1 0 -1 -1 -1 -1 0 0 0 0 0 0 0 
0
TEXT
8
DBLAYERS
10
0
20
-329.184
40
1.778
1
Layer_106:=106 0 0 0 0 0 0 0 0 0 0 2 0 0 0 0 1 1 0 -1 -1 -1 -1 0 0 0 0 0 0 0 
0
TEXT
8
DBLAYERS
10
0
20
-332.232
40
1.778
1
Layer_107:=107 0 0 0 0 0 0 0 0 0 0 2 0 0 0 0 1 1 0 -1 -1 -1 -1 0 0 0 0 0 0 0 
0
TEXT
8
DBLAYERS
10
0
20
-335.28
40
1.778
1
Layer_108:=108 0 0 0 0 0 0 0 0 0 0 2 0 0 0 0 1 1 0 -1 -1 -1 -1 0 0 0 0 0 0 0 
0
TEXT
8
DBLAYERS
10
0
20
-338.328
40
1.778
1
Layer_109:=109 0 0 0 0 0 0 0 0 0 0 2 0 0 0 0 1 1 0 -1 -1 -1 -1 0 0 0 0 0 0 0 
0
TEXT
8
DBLAYERS
10
0
20
-341.376
40
1.778
1
Layer_110:=110 0 0 0 0 0 0 0 0 0 0 2 0 0 0 0 1 1 0 -1 -1 -1 -1 0 0 0 0 0 0 0 
0
TEXT
8
DBLAYERS
10
0
20
-344.424
40
1.778
1
Layer_111:=111 0 0 0 0 0 0 0 0 0 0 2 0 0 0 0 1 1 0 -1 -1 -1 -1 0 0 0 0 0 0 0 
0
TEXT
8
DBLAYERS
10
0
20
-347.472
40
1.778
1
Layer_112:=112 0 0 0 0 0 0 0 0 0 0 2 0 0 0 0 1 1 0 -1 -1 -1 -1 0 0 0 0 0 0 0 
0
TEXT
8
DBLAYERS
10
0
20
-350.52
40
1.778
1
Layer_113:=113 0 0 0 0 0 0 0 0 0 0 2 0 0 0 0 1 1 0 -1 -1 -1 -1 0 0 0 0 0 0 0 
0
TEXT
8
DBLAYERS
10
0
20
-353.568
40
1.778
1
Layer_114:=114 0 0 0 0 0 0 0 0 0 0 2 0 0 0 0 1 1 0 -1 -1 -1 -1 0 0 0 0 0 0 0 
0
TEXT
8
DBLAYERS
10
0
20
-356.616
40
1.778
1
Layer_115:=115 0 0 0 0 0 0 0 0 0 0 2 0 0 0 0 1 1 0 -1 -1 -1 -1 0 0 0 0 0 0 0 
0
TEXT
8
DBLAYERS
10
0
20
-359.664
40
1.778
1
Layer_116:=116 0 0 0 0 0 0 0 0 0 0 2 0 0 0 0 1 1 0 -1 -1 -1 -1 0 0 0 0 0 0 0 
0
TEXT
8
DBLAYERS
10
0
20
-362.712
40
1.778
1
Layer_117:=117 0 0 0 0 0 0 0 0 0 0 2 0 0 0 0 1 1 0 -1 -1 -1 -1 0 0 0 0 0 0 0 
0
TEXT
8
DBLAYERS
10
0
20
-365.76
40
1.778
1
Layer_118:=118 0 0 0 0 0 0 0 0 0 0 2 0 0 0 0 1 1 0 -1 -1 -1 -1 0 0 0 0 0 0 0 
0
TEXT
8
DBLAYERS
10
0
20
-368.808
40
1.778
1
Layer_119:=119 0 0 0 0 25 14 8 0 0 0 2 0 0 0 0 1 1 0 -1 -1 -1 -1 0 0 0 0 0 0 0 
0
TEXT
8
DBLAYERS
10
0
20
-371.856
40
1.778
1
Layer_120:=120 0 0 0 0 0 0 0 0 13 14 2 0 0 0 0 1 1 0 -1 -1 -1 -1 0 0 0 0 0 0 0 
0
TEXT
8
DBLAYERS
10
0
20
-374.904
40
1.778
1
Solder Mask Top:=121 5 0 1 1 1 1 1 0 0 0 2 0 0 0 0 1 1 0 -1 -1 -1 -1 0 0 0 0 0 1 1 
0
TEXT
8
DBLAYERS
10
0
20
-377.952
40
1.778
1
Paste Mask Bottom:=122 4 0 16 16 16 16 16 0 0 0 2 0 0 0 0 1 1 0 -1 -1 -1 -1 0 0 0 0 0 16 16 
0
TEXT
8
DBLAYERS
10
0
20
-381
40
1.778
1
Paste Mask Top:=123 4 0 29 29 29 29 29 0 0 0 2 0 0 0 0 1 1 0 -1 -1 -1 -1 0 0 0 0 0 29 29 
0
TEXT
8
DBLAYERS
10
0
20
-384.048
40
1.778
1
Drill Drawing:=124 2 0 0 0 11 11 11 0 11 11 2 0 0 0 0 1 1 0 -1 -1 -1 -1 0 0 0 0 0 11 11 
0
TEXT
8
DBLAYERS
10
0
20
-387.096
40
1.778
1
Layer_125:=125 0 0 7 7 7 7 7 0 0 0 2 0 0 0 0 1 1 0 -1 -1 -1 -1 0 0 0 0 0 7 7 
0
TEXT
8
DBLAYERS
10
0
20
-390.144
40
1.778
1
Silkscreen Top:=126 3 0 0 0 8 8 8 0 8 0 2 0 0 0 0 1 1 0 -1 -1 -1 -1 0 0 0 8 0 8 8 
0
TEXT
8
DBLAYERS
10
0
20
-393.192
40
1.778
1
Assembly Drawing Top:=127 6 0 0 30 30 30 30 0 30 0 2 0 0 0 0 1 1 0 -1 -1 -1 -1 0 0 0 30 0 30 30 
0
TEXT
8
DBLAYERS
10
0
20
-396.24
40
1.778
1
Solder Mask Bottom:=128 5 0 27 27 27 27 27 0 0 0 2 0 0 0 0 1 1 0 -1 -1 -1 -1 0 0 0 0 0 27 27 
0
TEXT
8
DBLAYERS
10
0
20
-399.288
40
1.778
1
Silkscreen Bottom:=129 3 0 0 0 19 19 19 0 0 19 2 0 0 0 0 1 1 0 -1 -1 -1 -1 0 0 0 19 0 19 19 
0
TEXT
8
DBLAYERS
10
0
20
-402.336
40
1.778
1
Assembly Drawing Bottom:=130 6 0 0 17 17 17 17 0 0 17 2 0 0 0 0 1 1 0 -1 -1 -1 -1 0 0 0 17 0 17 17 
0
TEXT
8
DBLAYERS
10
0
20
-405.384
40
1.778
1
Layer_131:=131 0 0 0 0 0 0 0 0 0 0 2 0 0 0 0 0 1 0 -1 -1 -1 -1 0 0 0 0 0 0 0 
0
TEXT
8
DBLAYERS
10
0
20
-408.432
40
1.778
1
Layer_132:=132 0 0 0 0 0 0 0 0 0 0 2 0 0 0 0 0 1 0 -1 -1 -1 -1 0 0 0 0 0 0 0 
0
TEXT
8
DBLAYERS
10
0
20
-411.48
40
1.778
1
Layer_133:=133 0 0 0 0 0 0 0 0 0 0 2 0 0 0 0 0 1 0 -1 -1 -1 -1 0 0 0 0 0 0 0 
0
TEXT
8
DBLAYERS
10
0
20
-414.528
40
1.778
1
Layer_134:=134 0 0 0 0 0 0 0 0 0 0 2 0 0 0 0 0 1 0 -1 -1 -1 -1 0 0 0 0 0 0 0 
0
TEXT
8
DBLAYERS
10
0
20
-417.576
40
1.778
1
Layer_135:=135 0 0 0 0 0 0 0 0 0 0 2 0 0 0 0 0 1 0 -1 -1 -1 -1 0 0 0 0 0 0 0 
0
TEXT
8
DBLAYERS
10
0
20
-420.624
40
1.778
1
Layer_136:=136 0 0 0 0 0 0 0 0 0 0 2 0 0 0 0 0 1 0 -1 -1 -1 -1 0 0 0 0 0 0 0 
0
TEXT
8
DBLAYERS
10
0
20
-423.672
40
1.778
1
Layer_137:=137 0 0 0 0 0 0 0 0 0 0 2 0 0 0 0 0 1 0 -1 -1 -1 -1 0 0 0 0 0 0 0 
0
TEXT
8
DBLAYERS
10
0
20
-426.72
40
1.778
1
Layer_138:=138 0 0 0 0 0 0 0 0 0 0 2 0 0 0 0 0 1 0 -1 -1 -1 -1 0 0 0 0 0 0 0 
0
TEXT
8
DBLAYERS
10
0
20
-429.768
40
1.778
1
Layer_139:=139 0 0 0 0 0 0 0 0 0 0 2 0 0 0 0 0 1 0 -1 -1 -1 -1 0 0 0 0 0 0 0 
0
TEXT
8
DBLAYERS
10
0
20
-432.816
40
1.778
1
Layer_140:=140 0 0 0 0 0 0 0 0 0 0 2 0 0 0 0 0 1 0 -1 -1 -1 -1 0 0 0 0 0 0 0 
0
TEXT
8
DBLAYERS
10
0
20
-435.864
40
1.778
1
Layer_141:=141 0 0 0 0 0 0 0 0 0 0 2 0 0 0 0 0 1 0 -1 -1 -1 -1 0 0 0 0 0 0 0 
0
TEXT
8
DBLAYERS
10
0
20
-438.912
40
1.778
1
Layer_142:=142 0 0 0 0 0 0 0 0 0 0 2 0 0 0 0 0 1 0 -1 -1 -1 -1 0 0 0 0 0 0 0 
0
TEXT
8
DBLAYERS
10
0
20
-441.96
40
1.778
1
Layer_143:=143 0 0 0 0 0 0 0 0 0 0 2 0 0 0 0 0 1 0 -1 -1 -1 -1 0 0 0 0 0 0 0 
0
TEXT
8
DBLAYERS
10
0
20
-445.008
40
1.778
1
Layer_144:=144 0 0 0 0 0 0 0 0 0 0 2 0 0 0 0 0 1 0 -1 -1 -1 -1 0 0 0 0 0 0 0 
0
TEXT
8
DBLAYERS
10
0
20
-448.056
40
1.778
1
Layer_145:=145 0 0 0 0 0 0 0 0 0 0 2 0 0 0 0 0 1 0 -1 -1 -1 -1 0 0 0 0 0 0 0 
0
TEXT
8
DBLAYERS
10
0
20
-451.104
40
1.778
1
Layer_146:=146 0 0 0 0 0 0 0 0 0 0 2 0 0 0 0 0 1 0 -1 -1 -1 -1 0 0 0 0 0 0 0 
0
TEXT
8
DBLAYERS
10
0
20
-454.152
40
1.778
1
Layer_147:=147 0 0 0 0 0 0 0 0 0 0 2 0 0 0 0 0 1 0 -1 -1 -1 -1 0 0 0 0 0 0 0 
0
TEXT
8
DBLAYERS
10
0
20
-457.2
40
1.778
1
Layer_148:=148 0 0 0 0 0 0 0 0 0 0 2 0 0 0 0 0 1 0 -1 -1 -1 -1 0 0 0 0 0 0 0 
0
TEXT
8
DBLAYERS
10
0
20
-460.248
40
1.778
1
Layer_149:=149 0 0 0 0 0 0 0 0 0 0 2 0 0 0 0 0 1 0 -1 -1 -1 -1 0 0 0 0 0 0 0 
0
TEXT
8
DBLAYERS
10
0
20
-463.296
40
1.778
1
Layer_150:=150 0 0 0 0 0 0 0 0 0 0 2 0 0 0 0 0 1 0 -1 -1 -1 -1 0 0 0 0 0 0 0 
0
TEXT
8
DBLAYERS
10
0
20
-466.344
40
1.778
1
Layer_151:=151 0 0 0 0 0 0 0 0 0 0 2 0 0 0 0 0 1 0 -1 -1 -1 -1 0 0 0 0 0 0 0 
0
TEXT
8
DBLAYERS
10
0
20
-469.392
40
1.778
1
Layer_152:=152 0 0 0 0 0 0 0 0 0 0 2 0 0 0 0 0 1 0 -1 -1 -1 -1 0 0 0 0 0 0 0 
0
TEXT
8
DBLAYERS
10
0
20
-472.44
40
1.778
1
Layer_153:=153 0 0 0 0 0 0 0 0 0 0 2 0 0 0 0 0 1 0 -1 -1 -1 -1 0 0 0 0 0 0 0 
0
TEXT
8
DBLAYERS
10
0
20
-475.488
40
1.778
1
Layer_154:=154 0 0 0 0 0 0 0 0 0 0 2 0 0 0 0 0 1 0 -1 -1 -1 -1 0 0 0 0 0 0 0 
0
TEXT
8
DBLAYERS
10
0
20
-478.536
40
1.778
1
Layer_155:=155 0 0 0 0 0 0 0 0 0 0 2 0 0 0 0 0 1 0 -1 -1 -1 -1 0 0 0 0 0 0 0 
0
TEXT
8
DBLAYERS
10
0
20
-481.584
40
1.778
1
Layer_156:=156 0 0 0 0 0 0 0 0 0 0 2 0 0 0 0 0 1 0 -1 -1 -1 -1 0 0 0 0 0 0 0 
0
TEXT
8
DBLAYERS
10
0
20
-484.632
40
1.778
1
Layer_157:=157 0 0 0 0 0 0 0 0 0 0 2 0 0 0 0 0 1 0 -1 -1 -1 -1 0 0 0 0 0 0 0 
0
TEXT
8
DBLAYERS
10
0
20
-487.68
40
1.778
1
Layer_158:=158 0 0 0 0 0 0 0 0 0 0 2 0 0 0 0 0 1 0 -1 -1 -1 -1 0 0 0 0 0 0 0 
0
TEXT
8
DBLAYERS
10
0
20
-490.728
40
1.778
1
Layer_159:=159 0 0 0 0 0 0 0 0 0 0 2 0 0 0 0 0 1 0 -1 -1 -1 -1 0 0 0 0 0 0 0 
0
TEXT
8
DBLAYERS
10
0
20
-493.776
40
1.778
1
Layer_160:=160 0 0 0 0 0 0 0 0 0 0 2 0 0 0 0 0 1 0 -1 -1 -1 -1 0 0 0 0 0 0 0 
0
TEXT
8
DBLAYERS
10
0
20
-496.824
40
1.778
1
Layer_161:=161 0 0 0 0 0 0 0 0 0 0 2 0 0 0 0 0 1 0 -1 -1 -1 -1 0 0 0 0 0 0 0 
0
TEXT
8
DBLAYERS
10
0
20
-499.872
40
1.778
1
Layer_162:=162 0 0 0 0 0 0 0 0 0 0 2 0 0 0 0 0 1 0 -1 -1 -1 -1 0 0 0 0 0 0 0 
0
TEXT
8
DBLAYERS
10
0
20
-502.92
40
1.778
1
Layer_163:=163 0 0 0 0 0 0 0 0 0 0 2 0 0 0 0 0 1 0 -1 -1 -1 -1 0 0 0 0 0 0 0 
0
TEXT
8
DBLAYERS
10
0
20
-505.968
40
1.778
1
Layer_164:=164 0 0 0 0 0 0 0 0 0 0 2 0 0 0 0 0 1 0 -1 -1 -1 -1 0 0 0 0 0 0 0 
0
TEXT
8
DBLAYERS
10
0
20
-509.016
40
1.778
1
Layer_165:=165 0 0 0 0 0 0 0 0 0 0 2 0 0 0 0 0 1 0 -1 -1 -1 -1 0 0 0 0 0 0 0 
0
TEXT
8
DBLAYERS
10
0
20
-512.064
40
1.778
1
Layer_166:=166 0 0 0 0 0 0 0 0 0 0 2 0 0 0 0 0 1 0 -1 -1 -1 -1 0 0 0 0 0 0 0 
0
TEXT
8
DBLAYERS
10
0
20
-515.112
40
1.778
1
Layer_167:=167 0 0 0 0 0 0 0 0 0 0 2 0 0 0 0 0 1 0 -1 -1 -1 -1 0 0 0 0 0 0 0 
0
TEXT
8
DBLAYERS
10
0
20
-518.16
40
1.778
1
Layer_168:=168 0 0 0 0 0 0 0 0 0 0 2 0 0 0 0 0 1 0 -1 -1 -1 -1 0 0 0 0 0 0 0 
0
TEXT
8
DBLAYERS
10
0
20
-521.208
40
1.778
1
Layer_169:=169 0 0 0 0 0 0 0 0 0 0 2 0 0 0 0 0 1 0 -1 -1 -1 -1 0 0 0 0 0 0 0 
0
TEXT
8
DBLAYERS
10
0
20
-524.256
40
1.778
1
Layer_170:=170 0 0 0 0 0 0 0 0 0 0 2 0 0 0 0 0 1 0 -1 -1 -1 -1 0 0 0 0 0 0 0 
0
TEXT
8
DBLAYERS
10
0
20
-527.304
40
1.778
1
Layer_171:=171 0 0 0 0 0 0 0 0 0 0 2 0 0 0 0 0 1 0 -1 -1 -1 -1 0 0 0 0 0 0 0 
0
TEXT
8
DBLAYERS
10
0
20
-530.352
40
1.778
1
Layer_172:=172 0 0 0 0 0 0 0 0 0 0 2 0 0 0 0 0 1 0 -1 -1 -1 -1 0 0 0 0 0 0 0 
0
TEXT
8
DBLAYERS
10
0
20
-533.4
40
1.778
1
Layer_173:=173 0 0 0 0 0 0 0 0 0 0 2 0 0 0 0 0 1 0 -1 -1 -1 -1 0 0 0 0 0 0 0 
0
TEXT
8
DBLAYERS
10
0
20
-536.448
40
1.778
1
Layer_174:=174 0 0 0 0 0 0 0 0 0 0 2 0 0 0 0 0 1 0 -1 -1 -1 -1 0 0 0 0 0 0 0 
0
TEXT
8
DBLAYERS
10
0
20
-539.496
40
1.778
1
Layer_175:=175 0 0 0 0 0 0 0 0 0 0 2 0 0 0 0 0 1 0 -1 -1 -1 -1 0 0 0 0 0 0 0 
0
TEXT
8
DBLAYERS
10
0
20
-542.544
40
1.778
1
Layer_176:=176 0 0 0 0 0 0 0 0 0 0 2 0 0 0 0 0 1 0 -1 -1 -1 -1 0 0 0 0 0 0 0 
0
TEXT
8
DBLAYERS
10
0
20
-545.592
40
1.778
1
Layer_177:=177 0 0 0 0 0 0 0 0 0 0 2 0 0 0 0 0 1 0 -1 -1 -1 -1 0 0 0 0 0 0 0 
0
TEXT
8
DBLAYERS
10
0
20
-548.64
40
1.778
1
Layer_178:=178 0 0 0 0 0 0 0 0 0 0 2 0 0 0 0 0 1 0 -1 -1 -1 -1 0 0 0 0 0 0 0 
0
TEXT
8
DBLAYERS
10
0
20
-551.688
40
1.778
1
Layer_179:=179 0 0 0 0 0 0 0 0 0 0 2 0 0 0 0 0 1 0 -1 -1 -1 -1 0 0 0 0 0 0 0 
0
TEXT
8
DBLAYERS
10
0
20
-554.736
40
1.778
1
Layer_180:=180 0 0 0 0 0 0 0 0 0 0 2 0 0 0 0 0 1 0 -1 -1 -1 -1 0 0 0 0 0 0 0 
0
TEXT
8
DBLAYERS
10
0
20
-557.784
40
1.778
1
Layer_181:=181 0 0 0 0 0 0 0 0 0 0 2 0 0 0 0 0 1 0 -1 -1 -1 -1 0 0 0 0 0 0 0 
0
TEXT
8
DBLAYERS
10
0
20
-560.832
40
1.778
1
Layer_182:=182 0 0 0 0 0 0 0 0 0 0 2 0 0 0 0 0 1 0 -1 -1 -1 -1 0 0 0 0 0 0 0 
0
TEXT
8
DBLAYERS
10
0
20
-563.88
40
1.778
1
Layer_183:=183 0 0 0 0 0 0 0 0 0 0 2 0 0 0 0 0 1 0 -1 -1 -1 -1 0 0 0 0 0 0 0 
0
TEXT
8
DBLAYERS
10
0
20
-566.928
40
1.778
1
Layer_184:=184 0 0 0 0 0 0 0 0 0 0 2 0 0 0 0 0 1 0 -1 -1 -1 -1 0 0 0 0 0 0 0 
0
TEXT
8
DBLAYERS
10
0
20
-569.976
40
1.778
1
Layer_185:=185 0 0 0 0 0 0 0 0 0 0 2 0 0 0 0 0 1 0 -1 -1 -1 -1 0 0 0 0 0 0 0 
0
TEXT
8
DBLAYERS
10
0
20
-573.024
40
1.778
1
Layer_186:=186 0 0 0 0 0 0 0 0 0 0 2 0 0 0 0 0 1 0 -1 -1 -1 -1 0 0 0 0 0 0 0 
0
TEXT
8
DBLAYERS
10
0
20
-576.072
40
1.778
1
Layer_187:=187 0 0 0 0 0 0 0 0 0 0 2 0 0 0 0 0 1 0 -1 -1 -1 -1 0 0 0 0 0 0 0 
0
TEXT
8
DBLAYERS
10
0
20
-579.12
40
1.778
1
Layer_188:=188 0 0 0 0 0 0 0 0 0 0 2 0 0 0 0 0 1 0 -1 -1 -1 -1 0 0 0 0 0 0 0 
0
TEXT
8
DBLAYERS
10
0
20
-582.168
40
1.778
1
Layer_189:=189 0 0 0 0 0 0 0 0 0 0 2 0 0 0 0 0 1 0 -1 -1 -1 -1 0 0 0 0 0 0 0 
0
TEXT
8
DBLAYERS
10
0
20
-585.216
40
1.778
1
Layer_190:=190 0 0 0 0 0 0 0 0 0 0 2 0 0 0 0 0 1 0 -1 -1 -1 -1 0 0 0 0 0 0 0 
0
TEXT
8
DBLAYERS
10
0
20
-588.264
40
1.778
1
Layer_191:=191 0 0 0 0 0 0 0 0 0 0 2 0 0 0 0 0 1 0 -1 -1 -1 -1 0 0 0 0 0 0 0 
0
TEXT
8
DBLAYERS
10
0
20
-591.312
40
1.778
1
Layer_192:=192 0 0 0 0 0 0 0 0 0 0 2 0 0 0 0 0 1 0 -1 -1 -1 -1 0 0 0 0 0 0 0 
0
TEXT
8
DBLAYERS
10
0
20
-594.36
40
1.778
1
Layer_193:=193 0 0 0 0 0 0 0 0 0 0 2 0 0 0 0 0 1 0 -1 -1 -1 -1 0 0 0 0 0 0 0 
0
TEXT
8
DBLAYERS
10
0
20
-597.408
40
1.778
1
Layer_194:=194 0 0 0 0 0 0 0 0 0 0 2 0 0 0 0 0 1 0 -1 -1 -1 -1 0 0 0 0 0 0 0 
0
TEXT
8
DBLAYERS
10
0
20
-600.456
40
1.778
1
Layer_195:=195 0 0 0 0 0 0 0 0 0 0 2 0 0 0 0 0 1 0 -1 -1 -1 -1 0 0 0 0 0 0 0 
0
TEXT
8
DBLAYERS
10
0
20
-603.504
40
1.778
1
Layer_196:=196 0 0 0 0 0 0 0 0 0 0 2 0 0 0 0 0 1 0 -1 -1 -1 -1 0 0 0 0 0 0 0 
0
TEXT
8
DBLAYERS
10
0
20
-606.552
40
1.778
1
Layer_197:=197 0 0 0 0 0 0 0 0 0 0 2 0 0 0 0 0 1 0 -1 -1 -1 -1 0 0 0 0 0 0 0 
0
TEXT
8
DBLAYERS
10
0
20
-609.6
40
1.778
1
Layer_198:=198 0 0 0 0 0 0 0 0 0 0 2 0 0 0 0 0 1 0 -1 -1 -1 -1 0 0 0 0 0 0 0 
0
TEXT
8
DBLAYERS
10
0
20
-612.648
40
1.778
1
Layer_199:=199 0 0 0 0 0 0 0 0 0 0 2 0 0 0 0 0 1 0 -1 -1 -1 -1 0 0 0 0 0 0 0 
0
TEXT
8
DBLAYERS
10
0
20
-615.696
40
1.778
1
Layer_200:=200 0 0 0 0 0 0 0 0 0 0 2 0 0 0 0 0 1 0 -1 -1 -1 -1 0 0 0 0 0 0 0 
0
TEXT
8
DBLAYERS
10
0
20
-618.744
40
1.778
1
Layer_201:=201 0 0 0 0 0 0 0 0 0 0 2 0 0 0 0 0 1 0 -1 -1 -1 -1 0 0 0 0 0 0 0 
0
TEXT
8
DBLAYERS
10
0
20
-621.792
40
1.778
1
Layer_202:=202 0 0 0 0 0 0 0 0 0 0 2 0 0 0 0 0 1 0 -1 -1 -1 -1 0 0 0 0 0 0 0 
0
TEXT
8
DBLAYERS
10
0
20
-624.84
40
1.778
1
Layer_203:=203 0 0 0 0 0 0 0 0 0 0 2 0 0 0 0 0 1 0 -1 -1 -1 -1 0 0 0 0 0 0 0 
0
TEXT
8
DBLAYERS
10
0
20
-627.888
40
1.778
1
Layer_204:=204 0 0 0 0 0 0 0 0 0 0 2 0 0 0 0 0 1 0 -1 -1 -1 -1 0 0 0 0 0 0 0 
0
TEXT
8
DBLAYERS
10
0
20
-630.936
40
1.778
1
Layer_205:=205 0 0 0 0 0 0 0 0 0 0 2 0 0 0 0 0 1 0 -1 -1 -1 -1 0 0 0 0 0 0 0 
0
TEXT
8
DBLAYERS
10
0
20
-633.984
40
1.778
1
Layer_206:=206 0 0 0 0 0 0 0 0 0 0 2 0 0 0 0 0 1 0 -1 -1 -1 -1 0 0 0 0 0 0 0 
0
TEXT
8
DBLAYERS
10
0
20
-637.032
40
1.778
1
Layer_207:=207 0 0 0 0 0 0 0 0 0 0 2 0 0 0 0 0 1 0 -1 -1 -1 -1 0 0 0 0 0 0 0 
0
TEXT
8
DBLAYERS
10
0
20
-640.08
40
1.778
1
Layer_208:=208 0 0 0 0 0 0 0 0 0 0 2 0 0 0 0 0 1 0 -1 -1 -1 -1 0 0 0 0 0 0 0 
0
TEXT
8
DBLAYERS
10
0
20
-643.128
40
1.778
1
Layer_209:=209 0 0 0 0 0 0 0 0 0 0 2 0 0 0 0 0 1 0 -1 -1 -1 -1 0 0 0 0 0 0 0 
0
TEXT
8
DBLAYERS
10
0
20
-646.176
40
1.778
1
Layer_210:=210 0 0 0 0 0 0 0 0 0 0 2 0 0 0 0 0 1 0 -1 -1 -1 -1 0 0 0 0 0 0 0 
0
TEXT
8
DBLAYERS
10
0
20
-649.224
40
1.778
1
Layer_211:=211 0 0 0 0 0 0 0 0 0 0 2 0 0 0 0 0 1 0 -1 -1 -1 -1 0 0 0 0 0 0 0 
0
TEXT
8
DBLAYERS
10
0
20
-652.272
40
1.778
1
Layer_212:=212 0 0 0 0 0 0 0 0 0 0 2 0 0 0 0 0 1 0 -1 -1 -1 -1 0 0 0 0 0 0 0 
0
TEXT
8
DBLAYERS
10
0
20
-655.32
40
1.778
1
Layer_213:=213 0 0 0 0 0 0 0 0 0 0 2 0 0 0 0 0 1 0 -1 -1 -1 -1 0 0 0 0 0 0 0 
0
TEXT
8
DBLAYERS
10
0
20
-658.368
40
1.778
1
Layer_214:=214 0 0 0 0 0 0 0 0 0 0 2 0 0 0 0 0 1 0 -1 -1 -1 -1 0 0 0 0 0 0 0 
0
TEXT
8
DBLAYERS
10
0
20
-661.416
40
1.778
1
Layer_215:=215 0 0 0 0 0 0 0 0 0 0 2 0 0 0 0 0 1 0 -1 -1 -1 -1 0 0 0 0 0 0 0 
0
TEXT
8
DBLAYERS
10
0
20
-664.464
40
1.778
1
Layer_216:=216 0 0 0 0 0 0 0 0 0 0 2 0 0 0 0 0 1 0 -1 -1 -1 -1 0 0 0 0 0 0 0 
0
TEXT
8
DBLAYERS
10
0
20
-667.512
40
1.778
1
Layer_217:=217 0 0 0 0 0 0 0 0 0 0 2 0 0 0 0 0 1 0 -1 -1 -1 -1 0 0 0 0 0 0 0 
0
TEXT
8
DBLAYERS
10
0
20
-670.56
40
1.778
1
Layer_218:=218 0 0 0 0 0 0 0 0 0 0 2 0 0 0 0 0 1 0 -1 -1 -1 -1 0 0 0 0 0 0 0 
0
TEXT
8
DBLAYERS
10
0
20
-673.608
40
1.778
1
Layer_219:=219 0 0 0 0 0 0 0 0 0 0 2 0 0 0 0 0 1 0 -1 -1 -1 -1 0 0 0 0 0 0 0 
0
TEXT
8
DBLAYERS
10
0
20
-676.656
40
1.778
1
Layer_220:=220 0 0 0 0 0 0 0 0 0 0 2 0 0 0 0 0 1 0 -1 -1 -1 -1 0 0 0 0 0 0 0 
0
TEXT
8
DBLAYERS
10
0
20
-679.704
40
1.778
1
Layer_221:=221 0 0 0 0 0 0 0 0 0 0 2 0 0 0 0 0 1 0 -1 -1 -1 -1 0 0 0 0 0 0 0 
0
TEXT
8
DBLAYERS
10
0
20
-682.752
40
1.778
1
Layer_222:=222 0 0 0 0 0 0 0 0 0 0 2 0 0 0 0 0 1 0 -1 -1 -1 -1 0 0 0 0 0 0 0 
0
TEXT
8
DBLAYERS
10
0
20
-685.8
40
1.778
1
Layer_223:=223 0 0 0 0 0 0 0 0 0 0 2 0 0 0 0 0 1 0 -1 -1 -1 -1 0 0 0 0 0 0 0 
0
TEXT
8
DBLAYERS
10
0
20
-688.848
40
1.778
1
Layer_224:=224 0 0 0 0 0 0 0 0 0 0 2 0 0 0 0 0 1 0 -1 -1 -1 -1 0 0 0 0 0 0 0 
0
TEXT
8
DBLAYERS
10
0
20
-691.896
40
1.778
1
Layer_225:=225 0 0 0 0 0 0 0 0 0 0 2 0 0 0 0 0 1 0 -1 -1 -1 -1 0 0 0 0 0 0 0 
0
TEXT
8
DBLAYERS
10
0
20
-694.944
40
1.778
1
Layer_226:=226 0 0 0 0 0 0 0 0 0 0 2 0 0 0 0 0 1 0 -1 -1 -1 -1 0 0 0 0 0 0 0 
0
TEXT
8
DBLAYERS
10
0
20
-697.992
40
1.778
1
Layer_227:=227 0 0 0 0 0 0 0 0 0 0 2 0 0 0 0 0 1 0 -1 -1 -1 -1 0 0 0 0 0 0 0 
0
TEXT
8
DBLAYERS
10
0
20
-701.04
40
1.778
1
Layer_228:=228 0 0 0 0 0 0 0 0 0 0 2 0 0 0 0 0 1 0 -1 -1 -1 -1 0 0 0 0 0 0 0 
0
TEXT
8
DBLAYERS
10
0
20
-704.088
40
1.778
1
Layer_229:=229 0 0 0 0 0 0 0 0 0 0 2 0 0 0 0 0 1 0 -1 -1 -1 -1 0 0 0 0 0 0 0 
0
TEXT
8
DBLAYERS
10
0
20
-707.136
40
1.778
1
Layer_230:=230 0 0 0 0 0 0 0 0 0 0 2 0 0 0 0 0 1 0 -1 -1 -1 -1 0 0 0 0 0 0 0 
0
TEXT
8
DBLAYERS
10
0
20
-710.184
40
1.778
1
Layer_231:=231 0 0 0 0 0 0 0 0 0 0 2 0 0 0 0 0 1 0 -1 -1 -1 -1 0 0 0 0 0 0 0 
0
TEXT
8
DBLAYERS
10
0
20
-713.232
40
1.778
1
Layer_232:=232 0 0 0 0 0 0 0 0 0 0 2 0 0 0 0 0 1 0 -1 -1 -1 -1 0 0 0 0 0 0 0 
0
TEXT
8
DBLAYERS
10
0
20
-716.28
40
1.778
1
Layer_233:=233 0 0 0 0 0 0 0 0 0 0 2 0 0 0 0 0 1 0 -1 -1 -1 -1 0 0 0 0 0 0 0 
0
TEXT
8
DBLAYERS
10
0
20
-719.328
40
1.778
1
Layer_234:=234 0 0 0 0 0 0 0 0 0 0 2 0 0 0 0 0 1 0 -1 -1 -1 -1 0 0 0 0 0 0 0 
0
TEXT
8
DBLAYERS
10
0
20
-722.376
40
1.778
1
Layer_235:=235 0 0 0 0 0 0 0 0 0 0 2 0 0 0 0 0 1 0 -1 -1 -1 -1 0 0 0 0 0 0 0 
0
TEXT
8
DBLAYERS
10
0
20
-725.424
40
1.778
1
Layer_236:=236 0 0 0 0 0 0 0 0 0 0 2 0 0 0 0 0 1 0 -1 -1 -1 -1 0 0 0 0 0 0 0 
0
TEXT
8
DBLAYERS
10
0
20
-728.472
40
1.778
1
Layer_237:=237 0 0 0 0 0 0 0 0 0 0 2 0 0 0 0 0 1 0 -1 -1 -1 -1 0 0 0 0 0 0 0 
0
TEXT
8
DBLAYERS
10
0
20
-731.52
40
1.778
1
Layer_238:=238 0 0 0 0 0 0 0 0 0 0 2 0 0 0 0 0 1 0 -1 -1 -1 -1 0 0 0 0 0 0 0 
0
TEXT
8
DBLAYERS
10
0
20
-734.568
40
1.778
1
Layer_239:=239 0 0 0 0 0 0 0 0 0 0 2 0 0 0 0 0 1 0 -1 -1 -1 -1 0 0 0 0 0 0 0 
0
TEXT
8
DBLAYERS
10
0
20
-737.616
40
1.778
1
Layer_240:=240 0 0 0 0 0 0 0 0 0 0 2 0 0 0 0 0 1 0 -1 -1 -1 -1 0 0 0 0 0 0 0 
0
TEXT
8
DBLAYERS
10
0
20
-740.664
40
1.778
1
Layer_241:=241 0 0 0 0 0 0 0 0 0 0 2 0 0 0 0 0 1 0 -1 -1 -1 -1 0 0 0 0 0 0 0 
0
TEXT
8
DBLAYERS
10
0
20
-743.712
40
1.778
1
Layer_242:=242 0 0 0 0 0 0 0 0 0 0 2 0 0 0 0 0 1 0 -1 -1 -1 -1 0 0 0 0 0 0 0 
0
TEXT
8
DBLAYERS
10
0
20
-746.76
40
1.778
1
Layer_243:=243 0 0 0 0 0 0 0 0 0 0 2 0 0 0 0 0 1 0 -1 -1 -1 -1 0 0 0 0 0 0 0 
0
TEXT
8
DBLAYERS
10
0
20
-749.808
40
1.778
1
Layer_244:=244 0 0 0 0 0 0 0 0 0 0 2 0 0 0 0 0 1 0 -1 -1 -1 -1 0 0 0 0 0 0 0 
0
TEXT
8
DBLAYERS
10
0
20
-752.856
40
1.778
1
Layer_245:=245 0 0 0 0 0 0 0 0 0 0 2 0 0 0 0 0 1 0 -1 -1 -1 -1 0 0 0 0 0 0 0 
0
TEXT
8
DBLAYERS
10
0
20
-755.904
40
1.778
1
Layer_246:=246 0 0 0 0 0 0 0 0 0 0 2 0 0 0 0 0 1 0 -1 -1 -1 -1 0 0 0 0 0 0 0 
0
TEXT
8
DBLAYERS
10
0
20
-758.952
40
1.778
1
Layer_247:=247 0 0 0 0 0 0 0 0 0 0 2 0 0 0 0 0 1 0 -1 -1 -1 -1 0 0 0 0 0 0 0 
0
TEXT
8
DBLAYERS
10
0
20
-762
40
1.778
1
Layer_248:=248 0 0 0 0 0 0 0 0 0 0 2 0 0 0 0 0 1 0 -1 -1 -1 -1 0 0 0 0 0 0 0 
0
TEXT
8
DBLAYERS
10
0
20
-765.048
40
1.778
1
Layer_249:=249 0 0 0 0 0 0 0 0 0 0 2 0 0 0 0 0 1 0 -1 -1 -1 -1 0 0 0 0 0 0 0 
0
TEXT
8
DBLAYERS
10
0
20
-768.096
40
1.778
1
Layer_250:=250 0 0 0 0 0 0 0 0 0 0 2 0 0 0 0 0 1 0 -1 -1 -1 -1 0 0 0 0 0 0 0 
0
ENDBLK
999
*** POWERPCB  BOARD ***
999
*** POWERPCB  2DLINE ***
0
BLOCK
2
D_1dfeghi_1
8
0
10
0
20
0
3
D_1dfeghi_1
70
64
0
POLYLINE
8
DIMENSION7_01
6
TRMIDX_2048
66
1
40
0.0254
41
0.0254
0
VERTEX
8
DIMENSION7_01
10
3.04
20
-3.65
0
VERTEX
8
DIMENSION7_01
10
3.0406666667
20
-3.65
0
SEQEND
0
POLYLINE
8
DIMENSION7_01
6
TRMIDX_2048
66
1
40
0.0254
41
0.0254
0
VERTEX
8
DIMENSION7_01
10
64.44
20
-3.85
0
VERTEX
8
DIMENSION7_01
10
64.4406666667
20
-3.85
0
SEQEND
0
POLYLINE
8
DIMENSION1_01
6
TRMIDX_2048
66
1
40
0.254
41
0.254
0
VERTEX
8
DIMENSION1_01
10
3.04
20
3.15
0
VERTEX
8
DIMENSION1_01
10
29.2834546667
20
3.15
0
SEQEND
0
POLYLINE
8
DIMENSION3_01
6
TRMIDX_2048
66
1
40
0.254
41
0.254
70
1
0
VERTEX
8
DIMENSION3_01
10
3.04
20
3.15
0
VERTEX
8
DIMENSION3_01
10
5.58
20
3.785
0
VERTEX
8
DIMENSION3_01
10
5.58
20
2.515
0
SEQEND
0
POLYLINE
8
DIMENSION2_01
6
TRMIDX_2048
66
1
40
0.254
41
0.254
0
VERTEX
8
DIMENSION2_01
10
64.44
20
3.15
0
VERTEX
8
DIMENSION2_01
10
38.1965453333
20
3.15
0
SEQEND
0
POLYLINE
8
DIMENSION4_01
6
TRMIDX_2048
66
1
40
0.254
41
0.254
70
1
0
VERTEX
8
DIMENSION4_01
10
64.44
20
3.15
0
VERTEX
8
DIMENSION4_01
10
61.9
20
2.515
0
VERTEX
8
DIMENSION4_01
10
61.9
20
3.785
0
SEQEND
0
POLYLINE
8
DIMENSION5_01
6
TRMIDX_2048
66
1
40
0.254
41
0.254
0
VERTEX
8
DIMENSION5_01
10
3.04
20
-2.38
0
VERTEX
8
DIMENSION5_01
10
3.04
20
4.42
0
SEQEND
0
POLYLINE
8
DIMENSION6_01
6
TRMIDX_2048
66
1
40
0.254
41
0.254
0
VERTEX
8
DIMENSION6_01
10
64.44
20
-2.58
0
VERTEX
8
DIMENSION6_01
10
64.44
20
4.42
0
SEQEND
0
TEXT
8
TEXT_01
10
30.0454546667
20
2.1975
40
1.778
1
61.4mm
41
0.75
7
W0$254
0
ENDBLK
0
BLOCK
2
D_2daefgh_2
8
0
10
0
20
0
3
D_2daefgh_2
70
64
0
POLYLINE
8
DIMENSION7_01
6
TRMIDX_4096
66
1
40
0.0254
41
0.0254
0
VERTEX
8
DIMENSION7_01
10
0
20
0
0
VERTEX
8
DIMENSION7_01
10
0.0006666667
20
0
0
SEQEND
0
POLYLINE
8
DIMENSION7_01
6
TRMIDX_4096
66
1
40
0.0254
41
0.0254
0
VERTEX
8
DIMENSION7_01
10
0
20
8.92
0
VERTEX
8
DIMENSION7_01
10
0.0006666667
20
8.92
0
SEQEND
0
POLYLINE
8
DIMENSION1_01
6
TRMIDX_4096
66
1
40
0.254
41
0.254
0
VERTEX
8
DIMENSION1_01
10
-3.46
20
0
0
VERTEX
8
DIMENSION1_01
10
-3.46
20
8.92
0
SEQEND
0
POLYLINE
8
DIMENSION3_01
6
TRMIDX_4096
66
1
40
0.254
41
0.254
70
1
0
VERTEX
8
DIMENSION3_01
10
-3.46
20
0
0
VERTEX
8
DIMENSION3_01
10
-4.095
20
2.5399993333
0
VERTEX
8
DIMENSION3_01
10
-2.825
20
2.5399993333
0
SEQEND
0
POLYLINE
8
DIMENSION4_01
6
TRMIDX_4096
66
1
40
0.254
41
0.254
70
1
0
VERTEX
8
DIMENSION4_01
10
-3.46
20
8.92
0
VERTEX
8
DIMENSION4_01
10
-2.825
20
6.3800006667
0
VERTEX
8
DIMENSION4_01
10
-4.095
20
6.3800006667
0
SEQEND
0
POLYLINE
8
DIMENSION5_01
6
TRMIDX_4096
66
1
40
0.254
41
0.254
0
VERTEX
8
DIMENSION5_01
10
-1.27
20
0
0
VERTEX
8
DIMENSION5_01
10
-4.73
20
0
0
SEQEND
0
POLYLINE
8
DIMENSION6_01
6
TRMIDX_4096
66
1
40
0.254
41
0.254
0
VERTEX
8
DIMENSION6_01
10
-1.27
20
8.92
0
VERTEX
8
DIMENSION6_01
10
-4.73
20
8.92
0
SEQEND
0
TEXT
8
TEXT_01
10
-11.2499486667
20
4.1223926667
40
1.778
1
8.9mm
41
0.75
7
W0$254
0
ENDBLK
0
BLOCK
2
D_1dfeghi_3
8
0
10
0
20
0
3
D_1dfeghi_3
70
64
0
POLYLINE
8
DIMENSION7_01
6
TRMIDX_2048
66
1
40
0.0254
41
0.0254
0
VERTEX
8
DIMENSION7_01
10
0
20
0
0
VERTEX
8
DIMENSION7_01
10
0.0006666667
20
0
0
SEQEND
0
POLYLINE
8
DIMENSION7_01
6
TRMIDX_2048
66
1
40
0.0254
41
0.0254
0
VERTEX
8
DIMENSION7_01
10
-50.84
20
0
0
VERTEX
8
DIMENSION7_01
10
-50.8393333333
20
0
0
SEQEND
0
POLYLINE
8
DIMENSION1_01
6
TRMIDX_2048
66
1
40
0.254
41
0.254
0
VERTEX
8
DIMENSION1_01
10
0
20
-2.6
0
VERTEX
8
DIMENSION1_01
10
-20.674818
20
-2.6
0
SEQEND
0
POLYLINE
8
DIMENSION3_01
6
TRMIDX_2048
66
1
40
0.254
41
0.254
70
1
0
VERTEX
8
DIMENSION3_01
10
0
20
-2.6
0
VERTEX
8
DIMENSION3_01
10
-2.54
20
-3.235
0
VERTEX
8
DIMENSION3_01
10
-2.54
20
-1.965
0
SEQEND
0
POLYLINE
8
DIMENSION2_01
6
TRMIDX_2048
66
1
40
0.254
41
0.254
0
VERTEX
8
DIMENSION2_01
10
-50.84
20
-2.6
0
VERTEX
8
DIMENSION2_01
10
-30.1651813333
20
-2.6
0
SEQEND
0
POLYLINE
8
DIMENSION4_01
6
TRMIDX_2048
66
1
40
0.254
41
0.254
70
1
0
VERTEX
8
DIMENSION4_01
10
-50.84
20
-2.6
0
VERTEX
8
DIMENSION4_01
10
-48.3
20
-1.965
0
VERTEX
8
DIMENSION4_01
10
-48.3
20
-3.235
0
SEQEND
0
POLYLINE
8
DIMENSION5_01
6
TRMIDX_2048
66
1
40
0.254
41
0.254
0
VERTEX
8
DIMENSION5_01
10
0
20
-1.27
0
VERTEX
8
DIMENSION5_01
10
0
20
-3.87
0
SEQEND
0
POLYLINE
8
DIMENSION6_01
6
TRMIDX_2048
66
1
40
0.254
41
0.254
0
VERTEX
8
DIMENSION6_01
10
-50.84
20
-1.27
0
VERTEX
8
DIMENSION6_01
10
-50.84
20
-3.87
0
SEQEND
0
TEXT
8
TEXT_01
10
-29.4031813333
20
-3.5525
40
1.778
1
50.8mm
41
0.75
7
W0$254
0
ENDBLK
0
BLOCK
2
D_6aadaea_4
8
0
10
0
20
0
3
D_6aadaea_4
70
64
0
POLYLINE
8
DIMENSION7_01
6
TRMIDX_12288
66
1
40
0.254
41
0.254
0
VERTEX
8
DIMENSION7_01
10
0
20
0
0
VERTEX
8
DIMENSION7_01
10
0.0006666667
20
0
0
SEQEND
0
POLYLINE
8
DIMENSION7_01
6
TRMIDX_12288
66
1
40
0.254
41
0.254
0
VERTEX
8
DIMENSION7_01
10
1.9281773333
20
-0.0663213333
0
VERTEX
8
DIMENSION7_01
10
1.928844
20
-0.0663213333
0
SEQEND
0
POLYLINE
8
DIMENSION3_01
6
TRMIDX_12288
66
1
40
0.254
41
0.254
70
1
0
VERTEX
8
DIMENSION3_01
10
1.9281773333
20
-0.0663213333
0
VERTEX
8
DIMENSION3_01
10
4.4885046667
20
0.4809893333
0
VERTEX
8
DIMENSION3_01
10
4.4448473333
20
-0.78826
0
SEQEND
0
POLYLINE
8
DIMENSION5_01
6
TRMIDX_12288
66
1
40
0.254
41
0.254
0
VERTEX
8
DIMENSION5_01
10
1.9281773333
20
-0.0663213333
0
VERTEX
8
DIMENSION5_01
10
5.7359253333
20
-0.1972926667
0
SEQEND
0
TEXT
8
TEXT_01
10
6.4979253333
20
-1.1497926667
40
1.778
1
R1.9mm
41
0.75
7
W0$254
0
ENDBLK
0
BLOCK
2
D_6aadaea_5
8
0
10
0
20
0
3
D_6aadaea_5
70
64
0
POLYLINE
8
DIMENSION7_01
6
TRMIDX_12288
66
1
40
0.254
41
0.254
0
VERTEX
8
DIMENSION7_01
10
0
20
0
0
VERTEX
8
DIMENSION7_01
10
0.0006666667
20
0
0
SEQEND
0
POLYLINE
8
DIMENSION7_01
6
TRMIDX_12288
66
1
40
0.254
41
0.254
0
VERTEX
8
DIMENSION7_01
10
1.0416166667
20
0.5329486667
0
VERTEX
8
DIMENSION7_01
10
1.0422833333
20
0.5329486667
0
SEQEND
0
POLYLINE
8
DIMENSION3_01
6
TRMIDX_12288
66
1
40
0.254
41
0.254
70
1
0
VERTEX
8
DIMENSION3_01
10
1.0416166667
20
0.5329486667
0
VERTEX
8
DIMENSION3_01
10
3.013582
20
2.255208
0
VERTEX
8
DIMENSION3_01
10
3.5920606667
20
1.1246053333
0
SEQEND
0
POLYLINE
8
DIMENSION5_01
6
TRMIDX_12288
66
1
40
0.254
41
0.254
0
VERTEX
8
DIMENSION5_01
10
1.0416166667
20
0.5329486667
0
VERTEX
8
DIMENSION5_01
10
4.4334233333
20
2.2683853333
0
VERTEX
8
DIMENSION5_01
10
6.9734226667
20
2.2683853333
0
SEQEND
0
TEXT
8
TEXT_01
10
7.7354226667
20
1.3158853333
40
1.778
1
R1.2mm
41
0.75
7
W0$254
0
ENDBLK
0
BLOCK
2
D_6aadaea_6
8
0
10
0
20
0
3
D_6aadaea_6
70
64
0
POLYLINE
8
DIMENSION7_01
6
TRMIDX_12288
66
1
40
0.254
41
0.254
0
VERTEX
8
DIMENSION7_01
10
0
20
0
0
VERTEX
8
DIMENSION7_01
10
0.0006666667
20
0
0
SEQEND
0
POLYLINE
8
DIMENSION7_01
6
TRMIDX_12288
66
1
40
0.254
41
0.254
0
VERTEX
8
DIMENSION7_01
10
0.69489
20
-0.5719513333
0
VERTEX
8
DIMENSION7_01
10
0.6955566667
20
-0.5719513333
0
SEQEND
0
POLYLINE
8
DIMENSION3_01
6
TRMIDX_12288
66
1
40
0.254
41
0.254
70
1
0
VERTEX
8
DIMENSION3_01
10
0.69489
20
-0.5719513333
0
VERTEX
8
DIMENSION3_01
10
3.059566
20
-1.695842
0
VERTEX
8
DIMENSION3_01
10
2.2524793333
20
-2.6764073333
0
SEQEND
0
POLYLINE
8
DIMENSION5_01
6
TRMIDX_12288
66
1
40
0.254
41
0.254
0
VERTEX
8
DIMENSION5_01
10
0.69489
20
-0.5719513333
0
VERTEX
8
DIMENSION5_01
10
3.6365893333
20
-2.993212
0
VERTEX
8
DIMENSION5_01
10
6.1765886667
20
-2.993212
0
SEQEND
0
TEXT
8
TEXT_01
10
6.9385886667
20
-3.945712
40
1.778
1
R0.9mm
41
0.75
7
W0$254
0
ENDBLK
0
BLOCK
2
D_2dfeghi_7
8
0
10
0
20
0
3
D_2dfeghi_7
70
64
0
POLYLINE
8
DIMENSION7_01
6
TRMIDX_4096
66
1
40
0.0254
41
0.0254
0
VERTEX
8
DIMENSION7_01
10
0
20
0
0
VERTEX
8
DIMENSION7_01
10
0.0006666667
20
0
0
SEQEND
0
POLYLINE
8
DIMENSION7_01
6
TRMIDX_4096
66
1
40
0.0254
41
0.0254
0
VERTEX
8
DIMENSION7_01
10
0
20
3.75
0
VERTEX
8
DIMENSION7_01
10
0.0006666667
20
3.75
0
SEQEND
0
POLYLINE
8
DIMENSION1_01
6
TRMIDX_4096
66
1
40
0.254
41
0.254
0
VERTEX
8
DIMENSION1_01
10
-7.56
20
0
0
VERTEX
8
DIMENSION1_01
10
-7.56
20
-3.8099993333
0
SEQEND
0
POLYLINE
8
DIMENSION3_01
6
TRMIDX_4096
66
1
40
0.254
41
0.254
70
1
0
VERTEX
8
DIMENSION3_01
10
-7.56
20
0
0
VERTEX
8
DIMENSION3_01
10
-6.925
20
-2.5399993333
0
VERTEX
8
DIMENSION3_01
10
-8.195
20
-2.5399993333
0
SEQEND
0
POLYLINE
8
DIMENSION2_01
6
TRMIDX_4096
66
1
40
0.254
41
0.254
0
VERTEX
8
DIMENSION2_01
10
-7.56
20
3.75
0
VERTEX
8
DIMENSION2_01
10
-7.56
20
7.5599993333
0
SEQEND
0
POLYLINE
8
DIMENSION4_01
6
TRMIDX_4096
66
1
40
0.254
41
0.254
70
1
0
VERTEX
8
DIMENSION4_01
10
-7.56
20
3.75
0
VERTEX
8
DIMENSION4_01
10
-8.195
20
6.2899993333
0
VERTEX
8
DIMENSION4_01
10
-6.925
20
6.2899993333
0
SEQEND
0
POLYLINE
8
DIMENSION5_01
6
TRMIDX_4096
66
1
40
0.254
41
0.254
0
VERTEX
8
DIMENSION5_01
10
-1.27
20
0
0
VERTEX
8
DIMENSION5_01
10
-8.83
20
0
0
SEQEND
0
POLYLINE
8
DIMENSION6_01
6
TRMIDX_4096
66
1
40
0.254
41
0.254
0
VERTEX
8
DIMENSION6_01
10
-1.27
20
3.75
0
VERTEX
8
DIMENSION6_01
10
-8.83
20
3.75
0
SEQEND
0
TEXT
8
TEXT_01
10
-7.7077193333
20
1.0680666667
40
1.778
1
3.8mm
41
0.75
7
W0$254
0
ENDBLK
0
BLOCK
2
D_2dfeghi_8
8
0
10
0
20
0
3
D_2dfeghi_8
70
64
0
POLYLINE
8
DIMENSION7_01
6
TRMIDX_4096
66
1
40
0.0254
41
0.0254
0
VERTEX
8
DIMENSION7_01
10
0
20
0
0
VERTEX
8
DIMENSION7_01
10
0.0006666667
20
0
0
SEQEND
0
POLYLINE
8
DIMENSION7_01
6
TRMIDX_4096
66
1
40
0.0254
41
0.0254
0
VERTEX
8
DIMENSION7_01
10
0
20
5.93
0
VERTEX
8
DIMENSION7_01
10
0.0006666667
20
5.93
0
SEQEND
0
POLYLINE
8
DIMENSION1_01
6
TRMIDX_4096
66
1
40
0.254
41
0.254
0
VERTEX
8
DIMENSION1_01
10
-11.95
20
0
0
VERTEX
8
DIMENSION1_01
10
-11.95
20
-3.8099993333
0
SEQEND
0
POLYLINE
8
DIMENSION3_01
6
TRMIDX_4096
66
1
40
0.254
41
0.254
70
1
0
VERTEX
8
DIMENSION3_01
10
-11.95
20
0
0
VERTEX
8
DIMENSION3_01
10
-11.315
20
-2.5399993333
0
VERTEX
8
DIMENSION3_01
10
-12.585
20
-2.5399993333
0
SEQEND
0
POLYLINE
8
DIMENSION2_01
6
TRMIDX_4096
66
1
40
0.254
41
0.254
0
VERTEX
8
DIMENSION2_01
10
-11.95
20
5.93
0
VERTEX
8
DIMENSION2_01
10
-11.95
20
9.7399993333
0
SEQEND
0
POLYLINE
8
DIMENSION4_01
6
TRMIDX_4096
66
1
40
0.254
41
0.254
70
1
0
VERTEX
8
DIMENSION4_01
10
-11.95
20
5.93
0
VERTEX
8
DIMENSION4_01
10
-12.585
20
8.4699993333
0
VERTEX
8
DIMENSION4_01
10
-11.315
20
8.4699993333
0
SEQEND
0
POLYLINE
8
DIMENSION5_01
6
TRMIDX_4096
66
1
40
0.254
41
0.254
0
VERTEX
8
DIMENSION5_01
10
-1.27
20
0
0
VERTEX
8
DIMENSION5_01
10
-13.22
20
0
0
SEQEND
0
POLYLINE
8
DIMENSION6_01
6
TRMIDX_4096
66
1
40
0.254
41
0.254
0
VERTEX
8
DIMENSION6_01
10
-1.27
20
5.93
0
VERTEX
8
DIMENSION6_01
10
-13.22
20
5.93
0
SEQEND
0
TEXT
8
TEXT_01
10
-18.1603053333
20
2.123228
40
1.778
1
5.9mm
41
0.75
7
W0$254
0
ENDBLK
0
BLOCK
2
D_2daefgh_9
8
0
10
0
20
0
3
D_2daefgh_9
70
64
0
POLYLINE
8
DIMENSION7_01
6
TRMIDX_4096
66
1
40
0.0254
41
0.0254
0
VERTEX
8
DIMENSION7_01
10
0
20
0
0
VERTEX
8
DIMENSION7_01
10
0.0006666667
20
0
0
SEQEND
0
POLYLINE
8
DIMENSION7_01
6
TRMIDX_4096
66
1
40
0.0254
41
0.0254
0
VERTEX
8
DIMENSION7_01
10
0
20
8.33
0
VERTEX
8
DIMENSION7_01
10
0.0006666667
20
8.33
0
SEQEND
0
POLYLINE
8
DIMENSION1_01
6
TRMIDX_4096
66
1
40
0.254
41
0.254
0
VERTEX
8
DIMENSION1_01
10
-6.9
20
0
0
VERTEX
8
DIMENSION1_01
10
-6.9
20
8.33
0
SEQEND
0
POLYLINE
8
DIMENSION3_01
6
TRMIDX_4096
66
1
40
0.254
41
0.254
70
1
0
VERTEX
8
DIMENSION3_01
10
-6.9
20
0
0
VERTEX
8
DIMENSION3_01
10
-7.535
20
2.5399993333
0
VERTEX
8
DIMENSION3_01
10
-6.265
20
2.5399993333
0
SEQEND
0
POLYLINE
8
DIMENSION4_01
6
TRMIDX_4096
66
1
40
0.254
41
0.254
70
1
0
VERTEX
8
DIMENSION4_01
10
-6.9
20
8.33
0
VERTEX
8
DIMENSION4_01
10
-6.265
20
5.7900006667
0
VERTEX
8
DIMENSION4_01
10
-7.535
20
5.7900006667
0
SEQEND
0
POLYLINE
8
DIMENSION5_01
6
TRMIDX_4096
66
1
40
0.254
41
0.254
0
VERTEX
8
DIMENSION5_01
10
-1.27
20
0
0
VERTEX
8
DIMENSION5_01
10
-8.17
20
0
0
SEQEND
0
POLYLINE
8
DIMENSION6_01
6
TRMIDX_4096
66
1
40
0.254
41
0.254
0
VERTEX
8
DIMENSION6_01
10
-1.27
20
8.33
0
VERTEX
8
DIMENSION6_01
10
-8.17
20
8.33
0
SEQEND
0
TEXT
8
TEXT_01
10
-14.79151
20
0.8586213333
40
1.778
1
8.3mm
41
0.75
7
W0$254
0
ENDBLK
0
BLOCK
2
D_1dfeghi_10
8
0
10
0
20
0
3
D_1dfeghi_10
70
64
0
POLYLINE
8
DIMENSION7_01
6
TRMIDX_2048
66
1
40
0.0254
41
0.0254
0
VERTEX
8
DIMENSION7_01
10
0
20
0
0
VERTEX
8
DIMENSION7_01
10
0.0006666667
20
0
0
SEQEND
0
POLYLINE
8
DIMENSION7_01
6
TRMIDX_2048
66
1
40
0.0254
41
0.0254
0
VERTEX
8
DIMENSION7_01
10
-15.75
20
0
0
VERTEX
8
DIMENSION7_01
10
-15.7493333333
20
0
0
SEQEND
0
POLYLINE
8
DIMENSION1_01
6
TRMIDX_2048
66
1
40
0.254
41
0.254
0
VERTEX
8
DIMENSION1_01
10
0
20
-4.65
0
VERTEX
8
DIMENSION1_01
10
3.81
20
-4.65
0
SEQEND
0
POLYLINE
8
DIMENSION3_01
6
TRMIDX_2048
66
1
40
0.254
41
0.254
70
1
0
VERTEX
8
DIMENSION3_01
10
0
20
-4.65
0
VERTEX
8
DIMENSION3_01
10
2.54
20
-4.015
0
VERTEX
8
DIMENSION3_01
10
2.54
20
-5.285
0
SEQEND
0
POLYLINE
8
DIMENSION2_01
6
TRMIDX_2048
66
1
40
0.254
41
0.254
0
VERTEX
8
DIMENSION2_01
10
-15.75
20
-4.65
0
VERTEX
8
DIMENSION2_01
10
-19.56
20
-4.65
0
SEQEND
0
POLYLINE
8
DIMENSION4_01
6
TRMIDX_2048
66
1
40
0.254
41
0.254
70
1
0
VERTEX
8
DIMENSION4_01
10
-15.75
20
-4.65
0
VERTEX
8
DIMENSION4_01
10
-18.29
20
-5.285
0
VERTEX
8
DIMENSION4_01
10
-18.29
20
-4.015
0
SEQEND
0
POLYLINE
8
DIMENSION5_01
6
TRMIDX_2048
66
1
40
0.254
41
0.254
0
VERTEX
8
DIMENSION5_01
10
0
20
-1.27
0
VERTEX
8
DIMENSION5_01
10
0
20
-5.92
0
SEQEND
0
POLYLINE
8
DIMENSION6_01
6
TRMIDX_2048
66
1
40
0.254
41
0.254
0
VERTEX
8
DIMENSION6_01
10
-15.75
20
-1.27
0
VERTEX
8
DIMENSION6_01
10
-15.75
20
-5.92
0
SEQEND
0
TEXT
8
TEXT_01
10
-27.768818
20
-5.6025
40
1.778
1
15.8mm
41
0.75
7
W0$254
0
ENDBLK
0
BLOCK
2
D_2dfeghi_11
8
0
10
0
20
0
3
D_2dfeghi_11
70
64
0
POLYLINE
8
DIMENSION7_01
6
TRMIDX_4096
66
1
40
0.0254
41
0.0254
0
VERTEX
8
DIMENSION7_01
10
-2.94
20
-8.27
0
VERTEX
8
DIMENSION7_01
10
-2.9393333333
20
-8.27
0
SEQEND
0
POLYLINE
8
DIMENSION7_01
6
TRMIDX_4096
66
1
40
0.0254
41
0.0254
0
VERTEX
8
DIMENSION7_01
10
-0.99
20
16.73
0
VERTEX
8
DIMENSION7_01
10
-0.9893333333
20
16.73
0
SEQEND
0
POLYLINE
8
DIMENSION1_01
6
TRMIDX_4096
66
1
40
0.254
41
0.254
0
VERTEX
8
DIMENSION1_01
10
24.51
20
-8.27
0
VERTEX
8
DIMENSION1_01
10
24.51
20
2.5155
0
SEQEND
0
POLYLINE
8
DIMENSION3_01
6
TRMIDX_4096
66
1
40
0.254
41
0.254
70
1
0
VERTEX
8
DIMENSION3_01
10
24.51
20
-8.27
0
VERTEX
8
DIMENSION3_01
10
23.875
20
-5.7300006667
0
VERTEX
8
DIMENSION3_01
10
25.145
20
-5.7300006667
0
SEQEND
0
POLYLINE
8
DIMENSION2_01
6
TRMIDX_4096
66
1
40
0.254
41
0.254
0
VERTEX
8
DIMENSION2_01
10
24.51
20
16.73
0
VERTEX
8
DIMENSION2_01
10
24.51
20
5.9445
0
SEQEND
0
POLYLINE
8
DIMENSION4_01
6
TRMIDX_4096
66
1
40
0.254
41
0.254
70
1
0
VERTEX
8
DIMENSION4_01
10
24.51
20
16.73
0
VERTEX
8
DIMENSION4_01
10
25.145
20
14.1900006667
0
VERTEX
8
DIMENSION4_01
10
23.875
20
14.1900006667
0
SEQEND
0
POLYLINE
8
DIMENSION5_01
6
TRMIDX_4096
66
1
40
0.254
41
0.254
0
VERTEX
8
DIMENSION5_01
10
-1.67
20
-8.27
0
VERTEX
8
DIMENSION5_01
10
25.78
20
-8.27
0
SEQEND
0
POLYLINE
8
DIMENSION6_01
6
TRMIDX_4096
66
1
40
0.254
41
0.254
0
VERTEX
8
DIMENSION6_01
10
0.28
20
16.73
0
VERTEX
8
DIMENSION6_01
10
25.78
20
16.73
0
SEQEND
0
TEXT
8
TEXT_01
10
20.5268186667
20
3.2775
40
1.778
1
25.0mm
41
0.75
7
W0$254
0
ENDBLK
0
BLOCK
2
D_2dfeghi_12
8
0
10
0
20
0
3
D_2dfeghi_12
70
64
0
POLYLINE
8
DIMENSION7_01
6
TRMIDX_4096
66
1
40
0.0254
41
0.0254
0
VERTEX
8
DIMENSION7_01
10
-4.14
20
4.88
0
VERTEX
8
DIMENSION7_01
10
-4.1393333333
20
4.88
0
SEQEND
0
POLYLINE
8
DIMENSION7_01
6
TRMIDX_4096
66
1
40
0.0254
41
0.0254
0
VERTEX
8
DIMENSION7_01
10
0
20
8.93
0
VERTEX
8
DIMENSION7_01
10
0.0006666667
20
8.93
0
SEQEND
0
POLYLINE
8
DIMENSION1_01
6
TRMIDX_4096
66
1
40
0.254
41
0.254
0
VERTEX
8
DIMENSION1_01
10
17.41
20
4.88
0
VERTEX
8
DIMENSION1_01
10
17.41
20
1.0700006667
0
SEQEND
0
POLYLINE
8
DIMENSION3_01
6
TRMIDX_4096
66
1
40
0.254
41
0.254
70
1
0
VERTEX
8
DIMENSION3_01
10
17.41
20
4.88
0
VERTEX
8
DIMENSION3_01
10
18.045
20
2.3400006667
0
VERTEX
8
DIMENSION3_01
10
16.775
20
2.3400006667
0
SEQEND
0
POLYLINE
8
DIMENSION2_01
6
TRMIDX_4096
66
1
40
0.254
41
0.254
0
VERTEX
8
DIMENSION2_01
10
17.41
20
8.93
0
VERTEX
8
DIMENSION2_01
10
17.41
20
12.7399993333
0
SEQEND
0
POLYLINE
8
DIMENSION4_01
6
TRMIDX_4096
66
1
40
0.254
41
0.254
70
1
0
VERTEX
8
DIMENSION4_01
10
17.41
20
8.93
0
VERTEX
8
DIMENSION4_01
10
16.775
20
11.4699993333
0
VERTEX
8
DIMENSION4_01
10
18.045
20
11.4699993333
0
SEQEND
0
POLYLINE
8
DIMENSION5_01
6
TRMIDX_4096
66
1
40
0.254
41
0.254
0
VERTEX
8
DIMENSION5_01
10
-2.87
20
4.88
0
VERTEX
8
DIMENSION5_01
10
18.68
20
4.88
0
SEQEND
0
POLYLINE
8
DIMENSION6_01
6
TRMIDX_4096
66
1
40
0.254
41
0.254
0
VERTEX
8
DIMENSION6_01
10
1.27
20
8.93
0
VERTEX
8
DIMENSION6_01
10
18.68
20
8.93
0
SEQEND
0
TEXT
8
TEXT_01
10
10.0093633333
20
11.7874993333
40
1.778
1
4.0mm
41
0.75
7
W0$254
0
ENDBLK
0
BLOCK
2
D_6aadaea_13
8
0
10
0
20
0
3
D_6aadaea_13
70
64
0
POLYLINE
8
DIMENSION7_01
6
TRMIDX_12288
66
1
40
0.254
41
0.254
0
VERTEX
8
DIMENSION7_01
10
0
20
0
0
VERTEX
8
DIMENSION7_01
10
0.0006666667
20
0
0
SEQEND
0
POLYLINE
8
DIMENSION7_01
6
TRMIDX_12288
66
1
40
0.254
41
0.254
0
VERTEX
8
DIMENSION7_01
10
1.077412
20
-0.4562706667
0
VERTEX
8
DIMENSION7_01
10
1.0780786667
20
-0.4562706667
0
SEQEND
0
POLYLINE
8
DIMENSION3_01
6
TRMIDX_12288
66
1
40
0.254
41
0.254
70
1
0
VERTEX
8
DIMENSION3_01
10
1.077412
20
-0.4562706667
0
VERTEX
8
DIMENSION3_01
10
3.6639486667
20
-0.8620426667
0
VERTEX
8
DIMENSION3_01
10
3.1686993333
20
-2.0314986667
0
SEQEND
0
POLYLINE
8
DIMENSION5_01
6
TRMIDX_12288
66
1
40
0.254
41
0.254
0
VERTEX
8
DIMENSION5_01
10
1.077412
20
-0.4562706667
0
VERTEX
8
DIMENSION5_01
10
5.62
20
-2.3799993333
0
VERTEX
8
DIMENSION5_01
10
8.16
20
-2.3799993333
0
SEQEND
0
TEXT
8
TEXT_01
10
8.922
20
-3.3324993333
40
1.778
1
R1.2mm
41
0.75
7
W0$254
0
ENDBLK
0
BLOCK
2
D_1dfeghi_14
8
0
10
0
20
0
3
D_1dfeghi_14
70
64
0
POLYLINE
8
DIMENSION7_01
6
TRMIDX_2048
66
1
40
0.0254
41
0.0254
0
VERTEX
8
DIMENSION7_01
10
0
20
0
0
VERTEX
8
DIMENSION7_01
10
0.0006666667
20
0
0
SEQEND
0
POLYLINE
8
DIMENSION7_01
6
TRMIDX_2048
66
1
40
0.0254
41
0.0254
0
VERTEX
8
DIMENSION7_01
10
67.58
20
0
0
VERTEX
8
DIMENSION7_01
10
67.5806666667
20
0
0
SEQEND
0
POLYLINE
8
DIMENSION1_01
6
TRMIDX_2048
66
1
40
0.254
41
0.254
0
VERTEX
8
DIMENSION1_01
10
0
20
8.6
0
VERTEX
8
DIMENSION1_01
10
29.1314093333
20
8.6
0
SEQEND
0
POLYLINE
8
DIMENSION3_01
6
TRMIDX_2048
66
1
40
0.254
41
0.254
70
1
0
VERTEX
8
DIMENSION3_01
10
0
20
8.6
0
VERTEX
8
DIMENSION3_01
10
2.54
20
9.235
0
VERTEX
8
DIMENSION3_01
10
2.54
20
7.965
0
SEQEND
0
POLYLINE
8
DIMENSION2_01
6
TRMIDX_2048
66
1
40
0.254
41
0.254
0
VERTEX
8
DIMENSION2_01
10
67.58
20
8.6
0
VERTEX
8
DIMENSION2_01
10
38.4485913333
20
8.6
0
SEQEND
0
POLYLINE
8
DIMENSION4_01
6
TRMIDX_2048
66
1
40
0.254
41
0.254
70
1
0
VERTEX
8
DIMENSION4_01
10
67.58
20
8.6
0
VERTEX
8
DIMENSION4_01
10
65.04
20
7.965
0
VERTEX
8
DIMENSION4_01
10
65.04
20
9.235
0
SEQEND
0
POLYLINE
8
DIMENSION5_01
6
TRMIDX_2048
66
1
40
0.254
41
0.254
0
VERTEX
8
DIMENSION5_01
10
0
20
1.27
0
VERTEX
8
DIMENSION5_01
10
0
20
9.87
0
SEQEND
0
POLYLINE
8
DIMENSION6_01
6
TRMIDX_2048
66
1
40
0.254
41
0.254
0
VERTEX
8
DIMENSION6_01
10
67.58
20
1.27
0
VERTEX
8
DIMENSION6_01
10
67.58
20
9.87
0
SEQEND
0
TEXT
8
TEXT_01
10
29.8934093333
20
7.6475
40
1.778
1
67.6mm
41
0.75
7
W0$254
0
ENDBLK
0
BLOCK
2
D_6aadaea_15
8
0
10
0
20
0
3
D_6aadaea_15
70
64
0
POLYLINE
8
DIMENSION7_01
6
TRMIDX_12288
66
1
40
0.254
41
0.254
0
VERTEX
8
DIMENSION7_01
10
0
20
0
0
VERTEX
8
DIMENSION7_01
10
0.0006666667
20
0
0
SEQEND
0
POLYLINE
8
DIMENSION7_01
6
TRMIDX_12288
66
1
40
0.254
41
0.254
0
VERTEX
8
DIMENSION7_01
10
0.74479
20
0.50526
0
VERTEX
8
DIMENSION7_01
10
0.7454566667
20
0.50526
0
SEQEND
0
POLYLINE
8
DIMENSION3_01
6
TRMIDX_12288
66
1
40
0.254
41
0.254
70
1
0
VERTEX
8
DIMENSION3_01
10
0.74479
20
0.50526
0
VERTEX
8
DIMENSION3_01
10
2.4902646667
20
2.456706
0
VERTEX
8
DIMENSION3_01
10
3.203242
20
1.4057246667
0
SEQEND
0
POLYLINE
8
DIMENSION5_01
6
TRMIDX_12288
66
1
40
0.254
41
0.254
0
VERTEX
8
DIMENSION5_01
10
0.74479
20
0.50526
0
VERTEX
8
DIMENSION5_01
10
3.98
20
2.7000006667
0
VERTEX
8
DIMENSION5_01
10
6.52
20
2.7000006667
0
SEQEND
0
TEXT
8
TEXT_01
10
7.282
20
1.7475006667
40
1.778
1
R0.9mm
41
0.75
7
W0$254
0
ENDBLK
0
BLOCK
2
D_1dfeghi_16
8
0
10
0
20
0
3
D_1dfeghi_16
70
64
0
POLYLINE
8
DIMENSION7_01
6
TRMIDX_2048
66
1
40
0.0254
41
0.0254
0
VERTEX
8
DIMENSION7_01
10
-2.19
20
6.8
0
VERTEX
8
DIMENSION7_01
10
-2.1893333333
20
6.8
0
SEQEND
0
POLYLINE
8
DIMENSION7_01
6
TRMIDX_2048
66
1
40
0.0254
41
0.0254
0
VERTEX
8
DIMENSION7_01
10
-65.44
20
6.95
0
VERTEX
8
DIMENSION7_01
10
-65.4393333333
20
6.95
0
SEQEND
0
POLYLINE
8
DIMENSION1_01
6
TRMIDX_2048
66
1
40
0.254
41
0.254
0
VERTEX
8
DIMENSION1_01
10
-2.19
20
-10
0
VERTEX
8
DIMENSION1_01
10
-29.1275453333
20
-10
0
SEQEND
0
POLYLINE
8
DIMENSION3_01
6
TRMIDX_2048
66
1
40
0.254
41
0.254
70
1
0
VERTEX
8
DIMENSION3_01
10
-2.19
20
-10
0
VERTEX
8
DIMENSION3_01
10
-4.73
20
-10.635
0
VERTEX
8
DIMENSION3_01
10
-4.73
20
-9.365
0
SEQEND
0
POLYLINE
8
DIMENSION2_01
6
TRMIDX_2048
66
1
40
0.254
41
0.254
0
VERTEX
8
DIMENSION2_01
10
-65.44
20
-10
0
VERTEX
8
DIMENSION2_01
10
-38.5024546667
20
-10
0
SEQEND
0
POLYLINE
8
DIMENSION4_01
6
TRMIDX_2048
66
1
40
0.254
41
0.254
70
1
0
VERTEX
8
DIMENSION4_01
10
-65.44
20
-10
0
VERTEX
8
DIMENSION4_01
10
-62.9
20
-9.365
0
VERTEX
8
DIMENSION4_01
10
-62.9
20
-10.635
0
SEQEND
0
POLYLINE
8
DIMENSION5_01
6
TRMIDX_2048
66
1
40
0.254
41
0.254
0
VERTEX
8
DIMENSION5_01
10
-2.19
20
5.53
0
VERTEX
8
DIMENSION5_01
10
-2.19
20
-11.27
0
SEQEND
0
POLYLINE
8
DIMENSION6_01
6
TRMIDX_2048
66
1
40
0.254
41
0.254
0
VERTEX
8
DIMENSION6_01
10
-65.44
20
5.68
0
VERTEX
8
DIMENSION6_01
10
-65.44
20
-11.27
0
SEQEND
0
TEXT
8
TEXT_01
10
-37.7404546667
20
-10.9525
40
1.778
1
63.3mm
41
0.75
7
W0$254
0
ENDBLK
0
BLOCK
2
D_1dfeghi_17
8
0
10
0
20
0
3
D_1dfeghi_17
70
64
0
POLYLINE
8
DIMENSION7_01
6
TRMIDX_2048
66
1
40
0.0254
41
0.0254
0
VERTEX
8
DIMENSION7_01
10
0
20
0
0
VERTEX
8
DIMENSION7_01
10
0.0006666667
20
0
0
SEQEND
0
POLYLINE
8
DIMENSION7_01
6
TRMIDX_2048
66
1
40
0.0254
41
0.0254
0
VERTEX
8
DIMENSION7_01
10
-2.19
20
-2.9
0
VERTEX
8
DIMENSION7_01
10
-2.1893333333
20
-2.9
0
SEQEND
0
POLYLINE
8
DIMENSION1_01
6
TRMIDX_2048
66
1
40
0.254
41
0.254
0
VERTEX
8
DIMENSION1_01
10
0
20
-15.15
0
VERTEX
8
DIMENSION1_01
10
3.81
20
-15.15
0
SEQEND
0
POLYLINE
8
DIMENSION3_01
6
TRMIDX_2048
66
1
40
0.254
41
0.254
70
1
0
VERTEX
8
DIMENSION3_01
10
0
20
-15.15
0
VERTEX
8
DIMENSION3_01
10
2.54
20
-14.515
0
VERTEX
8
DIMENSION3_01
10
2.54
20
-15.785
0
SEQEND
0
POLYLINE
8
DIMENSION2_01
6
TRMIDX_2048
66
1
40
0.254
41
0.254
0
VERTEX
8
DIMENSION2_01
10
-2.19
20
-15.15
0
VERTEX
8
DIMENSION2_01
10
-6
20
-15.15
0
SEQEND
0
POLYLINE
8
DIMENSION4_01
6
TRMIDX_2048
66
1
40
0.254
41
0.254
70
1
0
VERTEX
8
DIMENSION4_01
10
-2.19
20
-15.15
0
VERTEX
8
DIMENSION4_01
10
-4.73
20
-15.785
0
VERTEX
8
DIMENSION4_01
10
-4.73
20
-14.515
0
SEQEND
0
POLYLINE
8
DIMENSION5_01
6
TRMIDX_2048
66
1
40
0.254
41
0.254
0
VERTEX
8
DIMENSION5_01
10
0
20
-1.27
0
VERTEX
8
DIMENSION5_01
10
0
20
-16.42
0
SEQEND
0
POLYLINE
8
DIMENSION6_01
6
TRMIDX_2048
66
1
40
0.254
41
0.254
0
VERTEX
8
DIMENSION6_01
10
-2.19
20
-4.17
0
VERTEX
8
DIMENSION6_01
10
-2.19
20
-16.42
0
SEQEND
0
TEXT
8
TEXT_01
10
-13.3429093333
20
-16.1025
40
1.778
1
2.2mm
41
0.75
7
W0$254
0
ENDBLK
0
BLOCK
2
DRAWING_18
8
0
10
0
20
0
3
DRAWING_18
70
64
0
POLYLINE
8
2D_LINE_02
66
1
40
0.1
41
0.1
70
1
0
VERTEX
8
2D_LINE_02
10
0
20
0
42
1
0
VERTEX
8
2D_LINE_02
10
1.8
20
0
42
1
0
SEQEND
0
POLYLINE
8
2D_LINE_02
66
1
40
0.1
41
0.1
70
1
0
VERTEX
8
2D_LINE_02
10
-63.25
20
-0.01
42
1
0
VERTEX
8
2D_LINE_02
10
-61.45
20
-0.01
42
1
0
SEQEND
0
POLYLINE
8
2D_LINE_02
66
1
40
0.1
41
0.1
70
1
0
VERTEX
8
2D_LINE_02
10
-1.1600426667
20
20.96
42
1
0
VERTEX
8
2D_LINE_02
10
1.1800426667
20
20.96
42
1
0
SEQEND
0
POLYLINE
8
2D_LINE_02
66
1
40
0.1
41
0.1
70
1
0
VERTEX
8
2D_LINE_02
10
-2.370084
20
20.97
42
1
0
VERTEX
8
2D_LINE_02
10
2.410084
20
20.97
42
1
0
SEQEND
0
POLYLINE
8
2D_LINE_02
66
1
40
0.1
41
0.1
70
1
0
VERTEX
8
2D_LINE_02
10
-62.6600426667
20
20.97
42
1
0
VERTEX
8
2D_LINE_02
10
-60.3199573333
20
20.97
42
1
0
SEQEND
0
POLYLINE
8
2D_LINE_02
66
1
40
0.1
41
0.1
70
1
0
VERTEX
8
2D_LINE_02
10
-63.870084
20
20.98
42
1
0
VERTEX
8
2D_LINE_02
10
-59.089916
20
20.98
42
1
0
SEQEND
0
POLYLINE
8
2D_LINE_02
66
1
40
0.1
41
0.1
0
VERTEX
8
2D_LINE_02
10
1.05
20
14.06
0
VERTEX
8
2D_LINE_02
10
1.05
20
14.01
0
SEQEND
0
INSERT
2
SMOOTH_0$1
8
2D_LINE_02
10
1.05
20
14.06
0
INSERT
2
SMOOTH_0$1
8
2D_LINE_02
10
1.05
20
14.01
0
POLYLINE
8
2D_LINE_02
66
1
40
0.1
41
0.1
0
VERTEX
8
2D_LINE_02
10
-62.4150026667
20
14.0349413333
0
VERTEX
8
2D_LINE_02
10
-62.4149973333
20
14.0350593333
0
SEQEND
0
INSERT
2
SMOOTH_0$1
8
2D_LINE_02
10
-62.4150026667
20
14.0349413333
0
INSERT
2
SMOOTH_0$1
8
2D_LINE_02
10
-62.4149973333
20
14.0350593333
0
POLYLINE
8
2D_LINE_02
66
1
40
0.1
41
0.1
70
1
0
VERTEX
8
2D_LINE_02
10
3.07
20
-6.01
0
VERTEX
8
2D_LINE_02
10
-47.77
20
-6.01
0
VERTEX
8
2D_LINE_02
10
-47.77
20
-2.39
42
0.7798812382
0
VERTEX
8
2D_LINE_02
10
-48.77
20
-2.39
0
VERTEX
8
2D_LINE_02
10
-48.77
20
-6.01
0
VERTEX
8
2D_LINE_02
10
-64.52
20
-6.01
0
VERTEX
8
2D_LINE_02
10
-64.52
20
2.32
0
VERTEX
8
2D_LINE_02
10
-62.42
20
2.32
0
VERTEX
8
2D_LINE_02
10
-62.42
20
8.25
0
VERTEX
8
2D_LINE_02
10
-64.51
20
8.25
0
VERTEX
8
2D_LINE_02
10
-64.51
20
12
0
VERTEX
8
2D_LINE_02
10
-64.45
20
12
42
0.3883764996
0
VERTEX
8
2D_LINE_02
10
-62.4150026667
20
14.0349413333
0
VERTEX
8
2D_LINE_02
10
-62.4149973333
20
14.0350593333
42
0.4420953753
0
VERTEX
8
2D_LINE_02
10
-64.45
20
16.07
0
VERTEX
8
2D_LINE_02
10
-64.51
20
16.07
0
VERTEX
8
2D_LINE_02
10
-64.51
20
24.99
0
VERTEX
8
2D_LINE_02
10
3.07
20
24.99
0
VERTEX
8
2D_LINE_02
10
3.07
20
16.06
0
VERTEX
8
2D_LINE_02
10
3.05
20
16.06
42
0.3679283603
0
VERTEX
8
2D_LINE_02
10
1.05
20
14.06
0
VERTEX
8
2D_LINE_02
10
1.05
20
14.01
42
0.4363697405
0
VERTEX
8
2D_LINE_02
10
3.05
20
12.01
0
VERTEX
8
2D_LINE_02
10
3.07
20
12.01
0
VERTEX
8
2D_LINE_02
10
3.07
20
8.31
0
VERTEX
8
2D_LINE_02
10
1.08
20
8.31
0
VERTEX
8
2D_LINE_02
10
1.08
20
2.32
0
VERTEX
8
2D_LINE_02
10
3.07
20
2.32
0
SEQEND
0
INSERT
2
SMOOTH_0$1
8
2D_LINE_02
10
3.07
20
-6.01
0
INSERT
2
SMOOTH_0$1
8
2D_LINE_02
10
-47.77
20
-6.01
0
INSERT
2
SMOOTH_0$1
8
2D_LINE_02
10
-47.77
20
-2.39
0
INSERT
2
SMOOTH_0$1
8
2D_LINE_02
10
-48.77
20
-2.39
0
INSERT
2
SMOOTH_0$1
8
2D_LINE_02
10
-48.77
20
-6.01
0
INSERT
2
SMOOTH_0$1
8
2D_LINE_02
10
-64.52
20
-6.01
0
INSERT
2
SMOOTH_0$1
8
2D_LINE_02
10
-64.52
20
2.32
0
INSERT
2
SMOOTH_0$1
8
2D_LINE_02
10
-62.42
20
2.32
0
INSERT
2
SMOOTH_0$1
8
2D_LINE_02
10
-62.42
20
8.25
0
INSERT
2
SMOOTH_0$1
8
2D_LINE_02
10
-64.51
20
8.25
0
INSERT
2
SMOOTH_0$1
8
2D_LINE_02
10
-64.51
20
12
0
INSERT
2
SMOOTH_0$1
8
2D_LINE_02
10
-64.45
20
12
0
INSERT
2
SMOOTH_0$1
8
2D_LINE_02
10
-62.4150026667
20
14.0349413333
0
ENDBLK
999
*** POWERPCB  COMPONENT ***
999
*** POWERPCB  PCB PARAMETER ***
0
BLOCK
2
PCB_PARAMS
8
0
10
0
20
0
3
PCB_PARAMS
70
64
999
 *  1.Job name           2.Backupfile name       3.CursorType
999
 *  4.TearDropFlag       5.HighlighNetsFlag      6.HatchDisplayFlag
999
 *  7.PadsFlag           8.TracksFlag            9.ViasFlag
999
 * 10.CopperFlag        11.LinesFlag            12.TextFlag
999
 * 13.TopComponentFlag  14.BottomComponentFlag  16.ObjectSnapFlags
0
TEXT
8
PCB_PARAMS
10
0
20
-3.048
40
1.778
1
A:=2d尺寸图.pcb <> 5 0 0 0 1 1 1 1 1 1 1 1 32 502 0
999
 *  1.RefDesHeight       2.RefDesWidth           3.DefaultWidth
999
 *  4.VGX                5.VGY                   6.OVR
999
 *  7.HatchGrid          8.ObjectSnapRadius
0
TEXT
8
PCB_PARAMS
10
0
20
-6.096
40
1.778
1
B:=2.54 0.254 0.254 0.01 0.01 0.0762 0.254 2.54
999
 *  1.ScaleFactor        2.NetAttributeFlags     3.BackupInterval
999
 *  4.WorkingLevel       5.HatchMode             6.HatchDirection
999
 *  7.ConnectionColor    8.BackgroundColor       9.ForegroundColor
999
 * 10.BoardOutlineColor
0
TEXT
8
PCB_PARAMS
10
0
20
-9.144
40
1.778
1
C:=9.6186389923 10002 20 1 0 0 8 0 8 8
999
 * MitreAngle0 - MitreAngle6
0
TEXT
8
PCB_PARAMS
10
0
20
-12.192
40
1.778
1
D:=324000000 324000000 324000000 324000000 324000000 324000000 162000000
999
 * Hatch & Keepout Parameters
0
TEXT
8
PCB_PARAMS
10
0
20
-15.24
40
1.778
1
E:=0.5 0 0 2.54 0 1
999
 * Fanout Parameters
0
TEXT
8
PCB_PARAMS
10
0
20
-18.288
40
1.778
1
F:=0.01 0.01 6.35 1 2 0 1 1 0 0 1 1 1 1
999
 * Pad Entry Parameters
0
TEXT
8
PCB_PARAMS
10
0
20
-21.336
40
1.778
1
P:= 1 1 1 1
999
 * DFF Parameters
0
TEXT
8
PCB_PARAMS
10
0
20
-24.384
40
1.778
1
Q:=89.9999 3967 114300 114300 114300 5 4 114300 114300 114300 114300 1 114300 1 114300 1 114300 0
0
ENDBLK
999
*** POWERPCB  SMOOTH CIRCLE ***
0
BLOCK
2
SMOOTH_0$1
8
0
10
0
20
0
3
SMOOTH_0$1
70
64
0
POLYLINE
8
0
66
1
40
0.05
41
0.05
70
1
0
VERTEX
8
0
10
-0.025
20
0
42
1
0
VERTEX
8
0
10
0.025
20
0
42
1
0
SEQEND
0
ENDBLK
0
ENDSEC
0
SECTION
2
ENTITIES
999
*** POWERPCB  DBLAYER ***
0
INSERT
2
DBLAYERS
8
0
10
0
20
0
999
*** POWERPCB  BOARD ***
999
*** POWERPCB  2DLINE ***
0
INSERT
2
D_1dfeghi_1
8
0
10
-7.44
20
16.38
0
INSERT
2
D_2daefgh_2
8
0
10
-7.44
20
7.46
0
INSERT
2
D_1dfeghi_3
8
0
10
60.14
20
-14.62
0
INSERT
2
D_6aadaea_4
8
0
10
60.0479726667
20
5.3279726667
0
INSERT
2
D_6aadaea_5
8
0
10
57.08
20
12.3499993333
0
INSERT
2
D_6aadaea_6
8
0
10
57.97
20
-8.6100006667
0
INSERT
2
D_2dfeghi_7
8
0
10
-7.44
20
-0.36
0
INSERT
2
D_2dfeghi_8
8
0
10
-5.35
20
-6.29
0
INSERT
2
D_2daefgh_9
8
0
10
-7.45
20
-14.62
0
INSERT
2
D_1dfeghi_10
8
0
10
8.3
20
-14.62
0
INSERT
2
D_2dfeghi_11
8
0
10
60.14
20
-0.3
0
INSERT
2
D_2dfeghi_12
8
0
10
60.14
20
7.45
0
INSERT
2
D_6aadaea_13
8
0
10
-4.42
20
12.3599993333
0
INSERT
2
D_1dfeghi_14
8
0
10
-7.44
20
16.38
0
INSERT
2
D_6aadaea_15
8
0
10
-5.28
20
-8.6200006667
0
INSERT
2
D_1dfeghi_16
8
0
10
60.14
20
-14.62
0
INSERT
2
D_1dfeghi_17
8
0
10
60.14
20
-14.62
0
INSERT
2
DRAWING_18
8
0
10
57.07
20
-8.61
999
*** POWERPCB  FREE TEXT ***
999
*** POWERPCB  COMPONENT ***
999
*** POWERPCB  PCB PARAMETER ***
0
INSERT
2
PCB_PARAMS
8
0
10
0
20
0
0
ENDSEC
0
EOF
