0
SECTION
2
HEADER
999
*** POWERPCB  HEADER ***
9
$EXTMIN
10
-0.0027
20
-8.7791946667
9
$EXTMAX
10
56.0227
20
8.1937
9
$FILLMODE
70
0
9
$GRIDMODE
70
1
9
$GRIDUNIT
10
0.001
20
0.001
9
$INSBASE
10
-499.054756
20
-453.874336
9
$LIMCHECK
70
0
9
$PLINEWID
40
0.0254
9
$SNAPMODE
70
1
9
$SNAPUNIT
10
0.001
20
0.001
9
$TEXTSIZE
40
2.54
9
$TEXTSTYLE
7
W0$254
9
$USERI1
70
101
9
$USERI2
70
1
9
$USERI5
70
150
9
$VIEWCTR
10
30.9430606667
20
2.8656153333
0
ENDSEC
0
SECTION
2
TABLES
999
*** POWERPCB  LAYER ***
0
TABLE
2
LAYER
70
30
0
LAYER
2
DBLAYERS
70
1
62
-254
6
CONTINUOUS
0
LAYER
2
BOARD_OUTLINE_00
70
0
62
254
6
CONTINUOUS
0
LAYER
2
TEXT_126
70
0
62
254
6
CONTINUOUS
0
LAYER
2
PART_NAME_TOP
70
1
62
-250
6
CONTINUOUS
0
LAYER
2
PART_TYPE_TOP
70
1
62
-250
6
CONTINUOUS
0
LAYER
2
PART_INFO
70
1
62
-254
6
CONTINUOUS
0
LAYER
2
PART_PTS
70
1
62
-254
6
CONTINUOUS
0
LAYER
2
LABEL_INFO
70
1
62
-254
6
CONTINUOUS
0
LAYER
2
LABEL_ATTRIBUTE
70
1
62
-254
6
CONTINUOUS
0
LAYER
2
ATTRIBUTE_01
70
0
62
5
6
CONTINUOUS
0
LAYER
2
SYM_NAME
70
1
62
-254
6
CONTINUOUS
0
LAYER
2
SYM_PART_NAME_01
70
1
62
-254
6
CONTINUOUS
0
LAYER
2
SYM_PART_TYPE_01
70
1
62
-254
6
CONTINUOUS
0
LAYER
2
SYM_TERMINAL
70
1
62
-254
6
CONTINUOUS
0
LAYER
2
PKG_INFO
70
1
62
-254
6
CONTINUOUS
0
LAYER
2
SYM_PART_NAME_126
70
1
62
-254
6
CONTINUOUS
0
LAYER
2
SYM_ATTRIBUTE_126
70
1
62
-254
6
CONTINUOUS
0
LAYER
2
PART_TOP_2DLINE_01
70
0
62
254
6
CONTINUOUS
0
LAYER
2
DRIL_PLTE_THRU_01
70
0
62
16
6
CONTINUOUS
0
LAYER
2
DRIL_PLTE_THRU_02
70
0
62
176
6
CONTINUOUS
0
LAYER
2
PADS_INNER
70
0
62
1
6
CONTINUOUS
0
LAYER
2
PADS_BOT
70
0
62
5
6
CONTINUOUS
0
LAYER
2
PADS_TOP
70
0
62
1
6
CONTINUOUS
0
LAYER
2
PART_TOP_2DLINE_116
70
1
62
-250
6
CONTINUOUS
0
LAYER
2
PART_TOP_COPPER_121
70
1
62
-250
6
CONTINUOUS
0
LAYER
2
PART_TOP_CUTOUT_01
70
0
62
254
6
CONTINUOUS
0
LAYER
2
DRIL_NPLTE_THRU_01
70
0
62
16
6
CONTINUOUS
0
LAYER
2
DRIL_NPLTE_THRU_02
70
0
62
176
6
CONTINUOUS
0
LAYER
2
PCB_PARAMS
70
1
62
-254
6
CONTINUOUS
0
LAYER
2
DRIL_SYMBOL
70
0
62
254
6
CONTINUOUS
0
ENDTAB
999
*** POWERPCB  TEXT STYLE ***
0
TABLE
2
STYLE
70
4
0
STYLE
2
W0$1
70
64
40
0
41
0.75
42
0
50
0
71
0
3
simplex
0
STYLE
2
W0$254
70
64
40
0
41
0.75
42
0
50
0
71
0
3
simplex
0
STYLE
2
W0$1016
70
64
40
0
41
0.75
42
0
50
0
71
0
3
simplex
0
STYLE
2
W0$127R0
70
64
40
0
41
0.75
42
0
50
0
71
0
3
simplex
0
ENDTAB
0
ENDSEC
0
SECTION
2
BLOCKS
999
*** POWERPCB  DBLAYER ***
0
BLOCK
2
DBLAYERS
8
0
10
0
20
0
3
DBLAYERS
70
64
0
TEXT
8
DBLAYERS
10
0
20
-3.048
40
1.778
1
__It__Is__Job__Name__:=PCIE2FPC_V1.2.pcb
999
 *  1.Number             2.Type                  3.RouteColor
999
 *  4.ViaColor           5.PadColor              6.CopperColor
999
 *  7.2DLineColor        8.TextColor             9.ErrorColor
999
 * 10.TopComponentColor 11.BottomComponentColor 12.RoutingDirection
999
 * 13.LayerThickness    14.CopperThickness      15.Dielectric
999
 * 16.IsRouteable       17.IsVisible            18.IsSelectable
999
 * 19.IsPrepreg         20.AssSilkScreen        21.AssPasteMask
999
 * 22.AssSolderMask     23.AssAssembly
0
TEXT
8
DBLAYERS
10
0
20
-6.096
40
1.778
1
<All Layers>:=0 0 0 8 12 12 14 9 15 8 27 2 0 0 3.2999999523 0 1 1 0 -1 -1 -1 -1 0 0 0 8 14 9 27 
0
TEXT
8
DBLAYERS
10
0
20
-9.144
40
1.778
1
Top:=1 1 12 8 12 12 14 9 15 8 0 0 381000 51435 4.3000001907 1 1 1 0 126 123 121 127 0 0 1 8 14 9 27 
0
TEXT
8
DBLAYERS
10
0
20
-12.192
40
1.778
1
Bottom:=2 1 9 8 9 9 13 12 15 0 27 1 0 51435 3.2999999523 1 1 1 0 129 122 128 130 0 0 1 27 14 12 20 
0
TEXT
8
DBLAYERS
10
0
20
-15.24
40
1.778
1
Layer_3:=3 0 0 0 0 0 0 0 0 0 0 2 0 0 0 0 0 0 0 -1 -1 -1 -1 0 0 0 0 0 0 0 
0
TEXT
8
DBLAYERS
10
0
20
-18.288
40
1.778
1
Layer_4:=4 0 0 0 0 0 0 0 0 0 0 2 0 0 0 0 0 0 0 -1 -1 -1 -1 0 0 0 0 0 0 0 
0
TEXT
8
DBLAYERS
10
0
20
-21.336
40
1.778
1
Layer_5:=5 0 0 0 0 0 0 0 0 0 0 2 0 0 0 0 0 0 0 -1 -1 -1 -1 0 0 0 0 0 0 0 
0
TEXT
8
DBLAYERS
10
0
20
-24.384
40
1.778
1
Layer_6:=6 0 0 0 0 0 0 0 0 0 0 2 0 0 0 0 0 0 0 -1 -1 -1 -1 0 0 0 0 0 0 0 
0
TEXT
8
DBLAYERS
10
0
20
-27.432
40
1.778
1
Layer_7:=7 0 0 0 0 0 0 0 0 0 0 2 0 0 0 0 0 0 0 -1 -1 -1 -1 0 0 0 0 0 0 0 
0
TEXT
8
DBLAYERS
10
0
20
-30.48
40
1.778
1
Layer_8:=8 0 0 0 0 0 0 0 0 0 0 2 0 0 0 0 0 0 0 -1 -1 -1 -1 0 0 0 0 0 0 0 
0
TEXT
8
DBLAYERS
10
0
20
-33.528
40
1.778
1
Layer_9:=9 0 0 0 0 0 0 0 0 0 0 2 0 0 0 0 0 0 0 -1 -1 -1 -1 0 0 0 0 0 0 0 
0
TEXT
8
DBLAYERS
10
0
20
-36.576
40
1.778
1
Layer_10:=10 0 0 0 0 0 0 0 0 0 0 2 0 0 0 0 0 0 0 -1 -1 -1 -1 0 0 0 0 0 0 0 
0
TEXT
8
DBLAYERS
10
0
20
-39.624
40
1.778
1
Layer_11:=11 0 0 0 0 0 0 0 0 0 0 2 0 0 0 0 0 0 0 -1 -1 -1 -1 0 0 0 0 0 0 0 
0
TEXT
8
DBLAYERS
10
0
20
-42.672
40
1.778
1
Layer_12:=12 0 0 0 0 0 0 0 0 0 0 2 0 0 0 0 0 0 0 -1 -1 -1 -1 0 0 0 0 0 0 0 
0
TEXT
8
DBLAYERS
10
0
20
-45.72
40
1.778
1
Layer_13:=13 0 0 0 0 0 0 0 0 0 0 2 0 0 0 0 0 0 0 -1 -1 -1 -1 0 0 0 0 0 0 0 
0
TEXT
8
DBLAYERS
10
0
20
-48.768
40
1.778
1
Layer_14:=14 0 0 0 0 0 0 0 0 0 0 2 0 0 0 0 0 0 0 -1 -1 -1 -1 0 0 0 0 0 0 0 
0
TEXT
8
DBLAYERS
10
0
20
-51.816
40
1.778
1
Layer_15:=15 0 0 0 0 0 0 0 0 0 0 2 0 0 0 0 0 0 0 -1 -1 -1 -1 0 0 0 0 0 0 0 
0
TEXT
8
DBLAYERS
10
0
20
-54.864
40
1.778
1
Layer_16:=16 0 0 0 0 0 0 0 0 0 0 2 0 0 0 0 0 0 0 -1 -1 -1 -1 0 0 0 0 0 0 0 
0
TEXT
8
DBLAYERS
10
0
20
-57.912
40
1.778
1
Layer_17:=17 0 0 0 0 0 0 0 0 0 0 2 0 0 0 0 0 0 0 -1 -1 -1 -1 0 0 0 0 0 0 0 
0
TEXT
8
DBLAYERS
10
0
20
-60.96
40
1.778
1
Layer_18:=18 0 0 0 0 0 0 0 0 0 0 2 0 0 0 0 0 0 0 -1 -1 -1 -1 0 0 0 0 0 0 0 
0
TEXT
8
DBLAYERS
10
0
20
-64.008
40
1.778
1
Layer_19:=19 0 0 0 0 0 0 0 0 0 0 2 0 0 0 0 0 0 0 -1 -1 -1 -1 0 0 0 0 0 0 0 
0
TEXT
8
DBLAYERS
10
0
20
-67.056
40
1.778
1
Layer_20:=20 0 0 0 0 0 0 0 0 0 0 2 0 0 0 0 0 0 0 -1 -1 -1 -1 0 0 0 0 0 0 0 
0
TEXT
8
DBLAYERS
10
0
20
-70.104
40
1.778
1
Layer_21:=21 0 0 0 0 0 0 0 0 0 0 2 0 0 0 0 0 0 0 -1 -1 -1 -1 0 0 0 0 0 0 0 
0
TEXT
8
DBLAYERS
10
0
20
-73.152
40
1.778
1
Layer_22:=22 0 0 0 0 0 0 0 0 0 0 2 0 0 0 0 0 0 0 -1 -1 -1 -1 0 0 0 0 0 0 0 
0
TEXT
8
DBLAYERS
10
0
20
-76.2
40
1.778
1
Layer_23:=23 0 0 0 0 0 0 0 0 0 0 2 0 0 0 0 0 0 0 -1 -1 -1 -1 0 0 0 0 0 0 0 
0
TEXT
8
DBLAYERS
10
0
20
-79.248
40
1.778
1
Layer_24:=24 0 0 0 0 0 0 0 0 0 0 2 0 0 0 0 0 0 0 -1 -1 -1 -1 0 0 0 0 0 0 0 
0
TEXT
8
DBLAYERS
10
0
20
-82.296
40
1.778
1
Layer_25:=25 0 0 0 0 0 0 0 0 0 0 2 0 0 0 0 0 0 0 -1 -1 -1 -1 0 0 0 0 0 0 0 
0
TEXT
8
DBLAYERS
10
0
20
-85.344
40
1.778
1
Layer_26:=26 0 0 0 0 0 0 0 0 0 0 2 0 0 0 0 0 0 0 -1 -1 -1 -1 0 0 0 0 0 0 0 
0
TEXT
8
DBLAYERS
10
0
20
-88.392
40
1.778
1
Layer_27:=27 0 0 0 0 0 0 0 0 0 0 2 0 0 0 0 0 0 0 -1 -1 -1 -1 0 0 0 0 0 0 0 
0
TEXT
8
DBLAYERS
10
0
20
-91.44
40
1.778
1
Layer_28:=28 0 0 0 0 0 0 0 0 0 0 2 0 0 0 0 0 0 0 -1 -1 -1 -1 0 0 0 0 0 0 0 
0
TEXT
8
DBLAYERS
10
0
20
-94.488
40
1.778
1
Layer_29:=29 0 0 0 0 0 0 0 0 0 0 2 0 0 0 0 0 0 0 -1 -1 -1 -1 0 0 0 0 0 0 0 
0
TEXT
8
DBLAYERS
10
0
20
-97.536
40
1.778
1
Layer_30:=30 0 0 0 0 0 0 0 0 0 0 2 0 0 0 0 0 0 0 -1 -1 -1 -1 0 0 0 0 0 0 0 
0
TEXT
8
DBLAYERS
10
0
20
-100.584
40
1.778
1
Layer_31:=31 0 0 0 0 0 0 0 0 0 0 2 0 0 0 0 0 0 0 -1 -1 -1 -1 0 0 0 0 0 0 0 
0
TEXT
8
DBLAYERS
10
0
20
-103.632
40
1.778
1
Layer_32:=32 0 0 0 0 0 0 0 0 0 0 2 0 0 0 0 0 0 0 -1 -1 -1 -1 0 0 0 0 0 0 0 
0
TEXT
8
DBLAYERS
10
0
20
-106.68
40
1.778
1
Layer_33:=33 0 0 0 0 0 0 0 0 0 0 2 0 0 0 0 0 0 0 -1 -1 -1 -1 0 0 0 0 0 0 0 
0
TEXT
8
DBLAYERS
10
0
20
-109.728
40
1.778
1
Layer_34:=34 0 0 0 0 0 0 0 0 0 0 2 0 0 0 0 0 0 0 -1 -1 -1 -1 0 0 0 0 0 0 0 
0
TEXT
8
DBLAYERS
10
0
20
-112.776
40
1.778
1
Layer_35:=35 0 0 0 0 0 0 0 0 0 0 2 0 0 0 0 0 0 0 -1 -1 -1 -1 0 0 0 0 0 0 0 
0
TEXT
8
DBLAYERS
10
0
20
-115.824
40
1.778
1
Layer_36:=36 0 0 0 0 0 0 0 0 0 0 2 0 0 0 0 0 0 0 -1 -1 -1 -1 0 0 0 0 0 0 0 
0
TEXT
8
DBLAYERS
10
0
20
-118.872
40
1.778
1
Layer_37:=37 0 0 0 0 0 0 0 0 0 0 2 0 0 0 0 0 0 0 -1 -1 -1 -1 0 0 0 0 0 0 0 
0
TEXT
8
DBLAYERS
10
0
20
-121.92
40
1.778
1
Layer_38:=38 0 0 0 0 0 0 0 0 0 0 2 0 0 0 0 0 0 0 -1 -1 -1 -1 0 0 0 0 0 0 0 
0
TEXT
8
DBLAYERS
10
0
20
-124.968
40
1.778
1
Layer_39:=39 0 0 0 0 0 0 0 0 0 0 2 0 0 0 0 0 0 0 -1 -1 -1 -1 0 0 0 0 0 0 0 
0
TEXT
8
DBLAYERS
10
0
20
-128.016
40
1.778
1
Layer_40:=40 0 0 0 0 0 0 0 0 0 0 2 0 0 0 0 0 0 0 -1 -1 -1 -1 0 0 0 0 0 0 0 
0
TEXT
8
DBLAYERS
10
0
20
-131.064
40
1.778
1
Layer_41:=41 0 0 0 0 0 0 0 0 0 0 2 0 0 0 0 0 0 0 -1 -1 -1 -1 0 0 0 0 0 0 0 
0
TEXT
8
DBLAYERS
10
0
20
-134.112
40
1.778
1
Layer_42:=42 0 0 0 0 0 0 0 0 0 0 2 0 0 0 0 0 0 0 -1 -1 -1 -1 0 0 0 0 0 0 0 
0
TEXT
8
DBLAYERS
10
0
20
-137.16
40
1.778
1
Layer_43:=43 0 0 0 0 0 0 0 0 0 0 2 0 0 0 0 0 0 0 -1 -1 -1 -1 0 0 0 0 0 0 0 
0
TEXT
8
DBLAYERS
10
0
20
-140.208
40
1.778
1
Layer_44:=44 0 0 0 0 0 0 0 0 0 0 2 0 0 0 0 0 0 0 -1 -1 -1 -1 0 0 0 0 0 0 0 
0
TEXT
8
DBLAYERS
10
0
20
-143.256
40
1.778
1
Layer_45:=45 0 0 0 0 0 0 0 0 0 0 2 0 0 0 0 0 0 0 -1 -1 -1 -1 0 0 0 0 0 0 0 
0
TEXT
8
DBLAYERS
10
0
20
-146.304
40
1.778
1
Layer_46:=46 0 0 0 0 0 0 0 0 0 0 2 0 0 0 0 0 0 0 -1 -1 -1 -1 0 0 0 0 0 0 0 
0
TEXT
8
DBLAYERS
10
0
20
-149.352
40
1.778
1
Layer_47:=47 0 0 0 0 0 0 0 0 0 0 2 0 0 0 0 0 0 0 -1 -1 -1 -1 0 0 0 0 0 0 0 
0
TEXT
8
DBLAYERS
10
0
20
-152.4
40
1.778
1
Layer_48:=48 0 0 0 0 0 0 0 0 0 0 2 0 0 0 0 0 0 0 -1 -1 -1 -1 0 0 0 0 0 0 0 
0
TEXT
8
DBLAYERS
10
0
20
-155.448
40
1.778
1
Layer_49:=49 0 0 0 0 0 0 0 0 0 0 2 0 0 0 0 0 0 0 -1 -1 -1 -1 0 0 0 0 0 0 0 
0
TEXT
8
DBLAYERS
10
0
20
-158.496
40
1.778
1
Layer_50:=50 0 0 0 0 0 0 0 0 0 0 2 0 0 0 0 0 0 0 -1 -1 -1 -1 0 0 0 0 0 0 0 
0
TEXT
8
DBLAYERS
10
0
20
-161.544
40
1.778
1
Layer_51:=51 0 0 0 0 0 0 0 0 0 0 2 0 0 0 0 0 0 0 -1 -1 -1 -1 0 0 0 0 0 0 0 
0
TEXT
8
DBLAYERS
10
0
20
-164.592
40
1.778
1
Layer_52:=52 0 0 0 0 0 0 0 0 0 0 2 0 0 0 0 0 0 0 -1 -1 -1 -1 0 0 0 0 0 0 0 
0
TEXT
8
DBLAYERS
10
0
20
-167.64
40
1.778
1
Layer_53:=53 0 0 0 0 0 0 0 0 0 0 2 0 0 0 0 0 0 0 -1 -1 -1 -1 0 0 0 0 0 0 0 
0
TEXT
8
DBLAYERS
10
0
20
-170.688
40
1.778
1
Layer_54:=54 0 0 0 0 0 0 0 0 0 0 2 0 0 0 0 0 0 0 -1 -1 -1 -1 0 0 0 0 0 0 0 
0
TEXT
8
DBLAYERS
10
0
20
-173.736
40
1.778
1
Layer_55:=55 0 0 0 0 0 0 0 0 0 0 2 0 0 0 0 0 0 0 -1 -1 -1 -1 0 0 0 0 0 0 0 
0
TEXT
8
DBLAYERS
10
0
20
-176.784
40
1.778
1
Layer_56:=56 0 0 0 0 0 0 0 0 0 0 2 0 0 0 0 0 0 0 -1 -1 -1 -1 0 0 0 0 0 0 0 
0
TEXT
8
DBLAYERS
10
0
20
-179.832
40
1.778
1
Layer_57:=57 0 0 0 0 0 0 0 0 0 0 2 0 0 0 0 0 0 0 -1 -1 -1 -1 0 0 0 0 0 0 0 
0
TEXT
8
DBLAYERS
10
0
20
-182.88
40
1.778
1
Layer_58:=58 0 0 0 0 0 0 0 0 0 0 2 0 0 0 0 0 0 0 -1 -1 -1 -1 0 0 0 0 0 0 0 
0
TEXT
8
DBLAYERS
10
0
20
-185.928
40
1.778
1
Layer_59:=59 0 0 0 0 0 0 0 0 0 0 2 0 0 0 0 0 0 0 -1 -1 -1 -1 0 0 0 0 0 0 0 
0
TEXT
8
DBLAYERS
10
0
20
-188.976
40
1.778
1
Layer_60:=60 0 0 0 0 0 0 0 0 0 0 2 0 0 0 0 0 0 0 -1 -1 -1 -1 0 0 0 0 0 0 0 
0
TEXT
8
DBLAYERS
10
0
20
-192.024
40
1.778
1
Layer_61:=61 0 0 0 0 0 0 0 0 0 0 2 0 0 0 0 0 0 0 -1 -1 -1 -1 0 0 0 0 0 0 0 
0
TEXT
8
DBLAYERS
10
0
20
-195.072
40
1.778
1
Layer_62:=62 0 0 0 0 0 0 0 0 0 0 2 0 0 0 0 0 0 0 -1 -1 -1 -1 0 0 0 0 0 0 0 
0
TEXT
8
DBLAYERS
10
0
20
-198.12
40
1.778
1
Layer_63:=63 0 0 0 0 0 0 0 0 0 0 2 0 0 0 0 0 0 0 -1 -1 -1 -1 0 0 0 0 0 0 0 
0
TEXT
8
DBLAYERS
10
0
20
-201.168
40
1.778
1
Layer_64:=64 0 0 0 0 0 0 0 0 0 0 2 0 0 0 0 0 0 0 -1 -1 -1 -1 0 0 0 0 0 0 0 
0
TEXT
8
DBLAYERS
10
0
20
-204.216
40
1.778
1
Layer_65:=65 0 0 0 0 0 0 0 0 0 0 2 0 0 0 0 0 0 0 -1 -1 -1 -1 0 0 0 0 0 0 0 
0
TEXT
8
DBLAYERS
10
0
20
-207.264
40
1.778
1
Layer_66:=66 0 0 0 0 0 0 0 0 0 0 2 0 0 0 0 0 0 0 -1 -1 -1 -1 0 0 0 0 0 0 0 
0
TEXT
8
DBLAYERS
10
0
20
-210.312
40
1.778
1
Layer_67:=67 0 0 0 0 0 0 0 0 0 0 2 0 0 0 0 0 0 0 -1 -1 -1 -1 0 0 0 0 0 0 0 
0
TEXT
8
DBLAYERS
10
0
20
-213.36
40
1.778
1
Layer_68:=68 0 0 0 0 0 0 0 0 0 0 2 0 0 0 0 0 0 0 -1 -1 -1 -1 0 0 0 0 0 0 0 
0
TEXT
8
DBLAYERS
10
0
20
-216.408
40
1.778
1
Layer_69:=69 0 0 0 0 0 0 0 0 0 0 2 0 0 0 0 0 0 0 -1 -1 -1 -1 0 0 0 0 0 0 0 
0
TEXT
8
DBLAYERS
10
0
20
-219.456
40
1.778
1
Layer_70:=70 0 0 0 0 0 0 0 0 0 0 2 0 0 0 0 0 0 0 -1 -1 -1 -1 0 0 0 0 0 0 0 
0
TEXT
8
DBLAYERS
10
0
20
-222.504
40
1.778
1
Layer_71:=71 0 0 0 0 0 0 0 0 0 0 2 0 0 0 0 0 0 0 -1 -1 -1 -1 0 0 0 0 0 0 0 
0
TEXT
8
DBLAYERS
10
0
20
-225.552
40
1.778
1
Layer_72:=72 0 0 0 0 0 0 0 0 0 0 2 0 0 0 0 0 0 0 -1 -1 -1 -1 0 0 0 0 0 0 0 
0
TEXT
8
DBLAYERS
10
0
20
-228.6
40
1.778
1
Layer_73:=73 0 0 0 0 0 0 0 0 0 0 2 0 0 0 0 0 0 0 -1 -1 -1 -1 0 0 0 0 0 0 0 
0
TEXT
8
DBLAYERS
10
0
20
-231.648
40
1.778
1
Layer_74:=74 0 0 0 0 0 0 0 0 0 0 2 0 0 0 0 0 0 0 -1 -1 -1 -1 0 0 0 0 0 0 0 
0
TEXT
8
DBLAYERS
10
0
20
-234.696
40
1.778
1
Layer_75:=75 0 0 0 0 0 0 0 0 0 0 2 0 0 0 0 0 0 0 -1 -1 -1 -1 0 0 0 0 0 0 0 
0
TEXT
8
DBLAYERS
10
0
20
-237.744
40
1.778
1
Layer_76:=76 0 0 0 0 0 0 0 0 0 0 2 0 0 0 0 0 0 0 -1 -1 -1 -1 0 0 0 0 0 0 0 
0
TEXT
8
DBLAYERS
10
0
20
-240.792
40
1.778
1
Layer_77:=77 0 0 0 0 0 0 0 0 0 0 2 0 0 0 0 0 0 0 -1 -1 -1 -1 0 0 0 0 0 0 0 
0
TEXT
8
DBLAYERS
10
0
20
-243.84
40
1.778
1
Layer_78:=78 0 0 0 0 0 0 0 0 0 0 2 0 0 0 0 0 0 0 -1 -1 -1 -1 0 0 0 0 0 0 0 
0
TEXT
8
DBLAYERS
10
0
20
-246.888
40
1.778
1
Layer_79:=79 0 0 0 0 0 0 0 0 0 0 2 0 0 0 0 0 0 0 -1 -1 -1 -1 0 0 0 0 0 0 0 
0
TEXT
8
DBLAYERS
10
0
20
-249.936
40
1.778
1
Layer_80:=80 0 0 0 0 0 0 0 0 0 0 2 0 0 0 0 0 0 0 -1 -1 -1 -1 0 0 0 0 0 0 0 
0
TEXT
8
DBLAYERS
10
0
20
-252.984
40
1.778
1
Layer_81:=81 0 0 0 0 0 0 0 0 0 0 2 0 0 0 0 0 0 0 -1 -1 -1 -1 0 0 0 0 0 0 0 
0
TEXT
8
DBLAYERS
10
0
20
-256.032
40
1.778
1
Layer_82:=82 0 0 0 0 0 0 0 0 0 0 2 0 0 0 0 0 0 0 -1 -1 -1 -1 0 0 0 0 0 0 0 
0
TEXT
8
DBLAYERS
10
0
20
-259.08
40
1.778
1
Layer_83:=83 0 0 0 0 0 0 0 0 0 0 2 0 0 0 0 0 0 0 -1 -1 -1 -1 0 0 0 0 0 0 0 
0
TEXT
8
DBLAYERS
10
0
20
-262.128
40
1.778
1
Layer_84:=84 0 0 0 0 0 0 0 0 0 0 2 0 0 0 0 0 0 0 -1 -1 -1 -1 0 0 0 0 0 0 0 
0
TEXT
8
DBLAYERS
10
0
20
-265.176
40
1.778
1
Layer_85:=85 0 0 0 0 0 0 0 0 0 0 2 0 0 0 0 0 0 0 -1 -1 -1 -1 0 0 0 0 0 0 0 
0
TEXT
8
DBLAYERS
10
0
20
-268.224
40
1.778
1
Layer_86:=86 0 0 0 0 0 0 0 0 0 0 2 0 0 0 0 0 0 0 -1 -1 -1 -1 0 0 0 0 0 0 0 
0
TEXT
8
DBLAYERS
10
0
20
-271.272
40
1.778
1
Layer_87:=87 0 0 0 0 0 0 0 0 0 0 2 0 0 0 0 0 0 0 -1 -1 -1 -1 0 0 0 0 0 0 0 
0
TEXT
8
DBLAYERS
10
0
20
-274.32
40
1.778
1
Layer_88:=88 0 0 0 0 0 0 0 0 0 0 2 0 0 0 0 0 0 0 -1 -1 -1 -1 0 0 0 0 0 0 0 
0
TEXT
8
DBLAYERS
10
0
20
-277.368
40
1.778
1
Layer_89:=89 0 0 0 0 0 0 0 0 0 0 2 0 0 0 0 0 0 0 -1 -1 -1 -1 0 0 0 0 0 0 0 
0
TEXT
8
DBLAYERS
10
0
20
-280.416
40
1.778
1
Layer_90:=90 0 0 0 0 0 0 0 0 0 0 2 0 0 0 0 0 0 0 -1 -1 -1 -1 0 0 0 0 0 0 0 
0
TEXT
8
DBLAYERS
10
0
20
-283.464
40
1.778
1
Layer_91:=91 0 0 0 0 0 0 0 0 0 0 2 0 0 0 0 0 0 0 -1 -1 -1 -1 0 0 0 0 0 0 0 
0
TEXT
8
DBLAYERS
10
0
20
-286.512
40
1.778
1
Layer_92:=92 0 0 0 0 0 0 0 0 0 0 2 0 0 0 0 0 0 0 -1 -1 -1 -1 0 0 0 0 0 0 0 
0
TEXT
8
DBLAYERS
10
0
20
-289.56
40
1.778
1
Layer_93:=93 0 0 0 0 0 0 0 0 0 0 2 0 0 0 0 0 0 0 -1 -1 -1 -1 0 0 0 0 0 0 0 
0
TEXT
8
DBLAYERS
10
0
20
-292.608
40
1.778
1
Layer_94:=94 0 0 0 0 0 0 0 0 0 0 2 0 0 0 0 0 0 0 -1 -1 -1 -1 0 0 0 0 0 0 0 
0
TEXT
8
DBLAYERS
10
0
20
-295.656
40
1.778
1
Layer_95:=95 0 0 0 0 0 0 0 0 0 0 2 0 0 0 0 0 0 0 -1 -1 -1 -1 0 0 0 0 0 0 0 
0
TEXT
8
DBLAYERS
10
0
20
-298.704
40
1.778
1
Layer_96:=96 0 0 0 0 0 0 0 0 0 0 2 0 0 0 0 0 0 0 -1 -1 -1 -1 0 0 0 0 0 0 0 
0
TEXT
8
DBLAYERS
10
0
20
-301.752
40
1.778
1
Layer_97:=97 0 0 0 0 0 0 0 0 0 0 2 0 0 0 0 0 0 0 -1 -1 -1 -1 0 0 0 0 0 0 0 
0
TEXT
8
DBLAYERS
10
0
20
-304.8
40
1.778
1
Layer_98:=98 0 0 0 0 0 0 0 0 0 0 2 0 0 0 0 0 0 0 -1 -1 -1 -1 0 0 0 0 0 0 0 
0
TEXT
8
DBLAYERS
10
0
20
-307.848
40
1.778
1
Layer_99:=99 0 0 0 0 0 0 0 0 0 0 2 0 0 0 0 0 0 0 -1 -1 -1 -1 0 0 0 0 0 0 0 
0
TEXT
8
DBLAYERS
10
0
20
-310.896
40
1.778
1
Layer_100:=100 0 0 0 0 0 0 0 0 0 0 2 0 0 0 0 0 0 0 -1 -1 -1 -1 0 0 0 0 0 0 0 
0
TEXT
8
DBLAYERS
10
0
20
-313.944
40
1.778
1
Layer_101:=101 0 0 0 0 0 0 0 0 0 0 2 0 0 0 0 0 0 0 -1 -1 -1 -1 0 0 0 0 0 0 0 
0
TEXT
8
DBLAYERS
10
0
20
-316.992
40
1.778
1
Layer_102:=102 0 0 0 0 0 0 0 0 0 0 2 0 0 0 0 0 0 0 -1 -1 -1 -1 0 0 0 0 0 0 0 
0
TEXT
8
DBLAYERS
10
0
20
-320.04
40
1.778
1
Layer_103:=103 0 0 0 0 0 0 0 0 0 0 2 0 0 3.2999999523 0 0 1 0 -1 -1 -1 -1 0 0 0 0 0 0 0 
0
TEXT
8
DBLAYERS
10
0
20
-323.088
40
1.778
1
Layer_104:=104 0 0 0 0 0 0 0 0 0 0 2 0 0 3.2999999523 0 0 1 0 -1 -1 -1 -1 0 0 0 0 0 0 0 
0
TEXT
8
DBLAYERS
10
0
20
-326.136
40
1.778
1
Layer_105:=105 0 0 0 0 0 0 0 0 0 0 2 0 0 3.2999999523 0 0 1 0 -1 -1 -1 -1 0 0 0 0 0 0 0 
0
TEXT
8
DBLAYERS
10
0
20
-329.184
40
1.778
1
Layer_106:=106 0 0 0 0 0 0 0 0 0 0 2 0 0 3.2999999523 0 0 1 0 -1 -1 -1 -1 0 0 0 0 0 0 0 
0
TEXT
8
DBLAYERS
10
0
20
-332.232
40
1.778
1
Layer_107:=107 0 0 0 0 0 0 0 0 0 0 2 0 0 3.2999999523 0 0 1 0 -1 -1 -1 -1 0 0 0 0 0 0 0 
0
TEXT
8
DBLAYERS
10
0
20
-335.28
40
1.778
1
Layer_108:=108 0 0 0 0 0 0 0 0 0 0 2 0 0 3.2999999523 0 0 1 0 -1 -1 -1 -1 0 0 0 0 0 0 0 
0
TEXT
8
DBLAYERS
10
0
20
-338.328
40
1.778
1
Layer_109:=109 0 0 0 0 0 0 0 0 0 0 2 0 0 3.2999999523 0 0 1 0 -1 -1 -1 -1 0 0 0 0 0 0 0 
0
TEXT
8
DBLAYERS
10
0
20
-341.376
40
1.778
1
Layer_110:=110 0 0 0 0 0 0 0 0 0 0 2 0 0 3.2999999523 0 0 1 0 -1 -1 -1 -1 0 0 0 0 0 0 0 
0
TEXT
8
DBLAYERS
10
0
20
-344.424
40
1.778
1
Layer_111:=111 0 0 0 0 0 0 0 0 0 0 2 0 0 3.2999999523 0 0 1 0 -1 -1 -1 -1 0 0 0 0 0 0 0 
0
TEXT
8
DBLAYERS
10
0
20
-347.472
40
1.778
1
Layer_112:=112 0 0 0 0 0 0 0 0 0 0 2 0 0 3.2999999523 0 0 1 0 -1 -1 -1 -1 0 0 0 0 0 0 0 
0
TEXT
8
DBLAYERS
10
0
20
-350.52
40
1.778
1
Layer_113:=113 0 0 0 0 0 0 0 0 0 0 2 0 0 3.2999999523 0 0 1 0 -1 -1 -1 -1 0 0 0 0 0 0 0 
0
TEXT
8
DBLAYERS
10
0
20
-353.568
40
1.778
1
Layer_114:=114 0 0 0 0 0 0 0 0 0 0 2 0 0 3.2999999523 0 0 1 0 -1 -1 -1 -1 0 0 0 0 0 0 0 
0
TEXT
8
DBLAYERS
10
0
20
-356.616
40
1.778
1
Layer_115:=115 0 0 0 0 0 0 0 0 0 0 2 0 0 3.2999999523 0 0 1 0 -1 -1 -1 -1 0 0 0 0 0 0 0 
0
TEXT
8
DBLAYERS
10
0
20
-359.664
40
1.778
1
Layer_116:=116 0 0 0 0 0 0 0 0 0 0 2 0 0 3.2999999523 0 0 1 0 -1 -1 -1 -1 0 0 0 0 0 0 0 
0
TEXT
8
DBLAYERS
10
0
20
-362.712
40
1.778
1
Layer_117:=117 0 0 0 0 0 0 0 0 0 0 2 0 0 3.2999999523 0 0 1 0 -1 -1 -1 -1 0 0 0 0 0 0 0 
0
TEXT
8
DBLAYERS
10
0
20
-365.76
40
1.778
1
Layer_118:=118 0 0 0 0 0 0 0 0 0 0 2 0 0 3.2999999523 0 0 1 0 -1 -1 -1 -1 0 0 0 0 0 0 0 
0
TEXT
8
DBLAYERS
10
0
20
-368.808
40
1.778
1
Layer_119:=119 0 0 0 0 25 14 8 0 0 0 2 0 0 3.2999999523 0 0 1 0 -1 -1 -1 -1 0 0 0 0 0 0 0 
0
TEXT
8
DBLAYERS
10
0
20
-371.856
40
1.778
1
Layer_120:=120 0 0 0 0 0 0 0 0 13 14 2 0 0 3.2999999523 0 0 1 0 -1 -1 -1 -1 0 0 0 0 0 0 0 
0
TEXT
8
DBLAYERS
10
0
20
-374.904
40
1.778
1
Solder Mask Top:=121 5 0 1 1 1 1 1 0 0 0 2 0 0 3.2999999523 0 1 1 0 -1 -1 -1 -1 0 0 0 0 0 1 1 
0
TEXT
8
DBLAYERS
10
0
20
-377.952
40
1.778
1
Paste Mask Bottom:=122 4 0 16 16 16 16 16 0 0 0 2 0 0 3.2999999523 0 1 1 0 -1 -1 -1 -1 0 0 0 0 0 16 16 
0
TEXT
8
DBLAYERS
10
0
20
-381
40
1.778
1
Paste Mask Top:=123 4 0 29 29 29 29 29 0 0 0 2 0 0 3.2999999523 0 1 1 0 -1 -1 -1 -1 0 0 0 0 0 29 29 
0
TEXT
8
DBLAYERS
10
0
20
-384.048
40
1.778
1
Drill Drawing:=124 2 0 0 0 11 11 11 0 11 11 2 0 0 3.2999999523 0 1 1 0 -1 -1 -1 -1 0 0 0 0 0 11 11 
0
TEXT
8
DBLAYERS
10
0
20
-387.096
40
1.778
1
Layer_125:=125 0 0 7 7 7 7 7 0 0 0 2 0 0 3.2999999523 0 1 1 0 -1 -1 -1 -1 0 0 0 0 0 7 7 
0
TEXT
8
DBLAYERS
10
0
20
-390.144
40
1.778
1
Silkscreen Top:=126 3 0 0 0 8 8 8 0 8 0 2 0 0 3.2999999523 0 1 1 0 -1 -1 -1 -1 0 0 0 8 0 8 8 
0
TEXT
8
DBLAYERS
10
0
20
-393.192
40
1.778
1
Assembly Drawing Top:=127 6 0 0 30 30 30 30 0 30 0 2 0 0 3.2999999523 0 1 1 0 -1 -1 -1 -1 0 0 0 30 0 30 30 
0
TEXT
8
DBLAYERS
10
0
20
-396.24
40
1.778
1
Solder Mask Bottom:=128 5 0 27 27 27 27 27 0 0 0 2 0 0 3.2999999523 0 1 1 0 -1 -1 -1 -1 0 0 0 0 0 27 27 
0
TEXT
8
DBLAYERS
10
0
20
-399.288
40
1.778
1
Silkscreen Bottom:=129 3 0 0 0 19 19 19 0 0 19 2 0 0 3.2999999523 0 1 1 0 -1 -1 -1 -1 0 0 0 19 0 19 19 
0
TEXT
8
DBLAYERS
10
0
20
-402.336
40
1.778
1
Assembly Drawing Bottom:=130 6 0 0 17 17 17 17 0 0 17 2 0 0 3.2999999523 0 0 1 0 -1 -1 -1 -1 0 0 0 17 0 17 17 
0
TEXT
8
DBLAYERS
10
0
20
-405.384
40
1.778
1
Layer_131:=131 0 0 0 0 0 0 0 0 0 0 2 0 0 0 0 0 0 0 -1 -1 -1 -1 0 0 0 0 0 0 0 
0
TEXT
8
DBLAYERS
10
0
20
-408.432
40
1.778
1
Layer_132:=132 0 0 0 0 0 0 0 0 0 0 2 0 0 0 0 0 0 0 -1 -1 -1 -1 0 0 0 0 0 0 0 
0
TEXT
8
DBLAYERS
10
0
20
-411.48
40
1.778
1
Layer_133:=133 0 0 0 0 0 0 0 0 0 0 2 0 0 0 0 0 0 0 -1 -1 -1 -1 0 0 0 0 0 0 0 
0
TEXT
8
DBLAYERS
10
0
20
-414.528
40
1.778
1
Layer_134:=134 0 0 0 0 0 0 0 0 0 0 2 0 0 0 0 0 0 0 -1 -1 -1 -1 0 0 0 0 0 0 0 
0
TEXT
8
DBLAYERS
10
0
20
-417.576
40
1.778
1
Layer_135:=135 0 0 0 0 0 0 0 0 0 0 2 0 0 0 0 0 0 0 -1 -1 -1 -1 0 0 0 0 0 0 0 
0
TEXT
8
DBLAYERS
10
0
20
-420.624
40
1.778
1
Layer_136:=136 0 0 0 0 0 0 0 0 0 0 2 0 0 0 0 0 0 0 -1 -1 -1 -1 0 0 0 0 0 0 0 
0
TEXT
8
DBLAYERS
10
0
20
-423.672
40
1.778
1
Layer_137:=137 0 0 0 0 0 0 0 0 0 0 2 0 0 0 0 0 0 0 -1 -1 -1 -1 0 0 0 0 0 0 0 
0
TEXT
8
DBLAYERS
10
0
20
-426.72
40
1.778
1
Layer_138:=138 0 0 0 0 0 0 0 0 0 0 2 0 0 0 0 0 0 0 -1 -1 -1 -1 0 0 0 0 0 0 0 
0
TEXT
8
DBLAYERS
10
0
20
-429.768
40
1.778
1
Layer_139:=139 0 0 0 0 0 0 0 0 0 0 2 0 0 0 0 0 0 0 -1 -1 -1 -1 0 0 0 0 0 0 0 
0
TEXT
8
DBLAYERS
10
0
20
-432.816
40
1.778
1
Layer_140:=140 0 0 0 0 0 0 0 0 0 0 2 0 0 0 0 0 0 0 -1 -1 -1 -1 0 0 0 0 0 0 0 
0
TEXT
8
DBLAYERS
10
0
20
-435.864
40
1.778
1
Layer_141:=141 0 0 0 0 0 0 0 0 0 0 2 0 0 0 0 0 0 0 -1 -1 -1 -1 0 0 0 0 0 0 0 
0
TEXT
8
DBLAYERS
10
0
20
-438.912
40
1.778
1
Layer_142:=142 0 0 0 0 0 0 0 0 0 0 2 0 0 0 0 0 0 0 -1 -1 -1 -1 0 0 0 0 0 0 0 
0
TEXT
8
DBLAYERS
10
0
20
-441.96
40
1.778
1
Layer_143:=143 0 0 0 0 0 0 0 0 0 0 2 0 0 0 0 0 0 0 -1 -1 -1 -1 0 0 0 0 0 0 0 
0
TEXT
8
DBLAYERS
10
0
20
-445.008
40
1.778
1
Layer_144:=144 0 0 0 0 0 0 0 0 0 0 2 0 0 0 0 0 0 0 -1 -1 -1 -1 0 0 0 0 0 0 0 
0
TEXT
8
DBLAYERS
10
0
20
-448.056
40
1.778
1
Layer_145:=145 0 0 0 0 0 0 0 0 0 0 2 0 0 0 0 0 0 0 -1 -1 -1 -1 0 0 0 0 0 0 0 
0
TEXT
8
DBLAYERS
10
0
20
-451.104
40
1.778
1
Layer_146:=146 0 0 0 0 0 0 0 0 0 0 2 0 0 0 0 0 0 0 -1 -1 -1 -1 0 0 0 0 0 0 0 
0
TEXT
8
DBLAYERS
10
0
20
-454.152
40
1.778
1
Layer_147:=147 0 0 0 0 0 0 0 0 0 0 2 0 0 0 0 0 0 0 -1 -1 -1 -1 0 0 0 0 0 0 0 
0
TEXT
8
DBLAYERS
10
0
20
-457.2
40
1.778
1
Layer_148:=148 0 0 0 0 0 0 0 0 0 0 2 0 0 0 0 0 0 0 -1 -1 -1 -1 0 0 0 0 0 0 0 
0
TEXT
8
DBLAYERS
10
0
20
-460.248
40
1.778
1
Layer_149:=149 0 0 0 0 0 0 0 0 0 0 2 0 0 0 0 0 0 0 -1 -1 -1 -1 0 0 0 0 0 0 0 
0
TEXT
8
DBLAYERS
10
0
20
-463.296
40
1.778
1
Layer_150:=150 0 0 0 0 0 0 0 0 0 0 2 0 0 0 0 0 0 0 -1 -1 -1 -1 0 0 0 0 0 0 0 
0
TEXT
8
DBLAYERS
10
0
20
-466.344
40
1.778
1
Layer_151:=151 0 0 0 0 0 0 0 0 0 0 2 0 0 0 0 0 0 0 -1 -1 -1 -1 0 0 0 0 0 0 0 
0
TEXT
8
DBLAYERS
10
0
20
-469.392
40
1.778
1
Layer_152:=152 0 0 0 0 0 0 0 0 0 0 2 0 0 0 0 0 0 0 -1 -1 -1 -1 0 0 0 0 0 0 0 
0
TEXT
8
DBLAYERS
10
0
20
-472.44
40
1.778
1
Layer_153:=153 0 0 0 0 0 0 0 0 0 0 2 0 0 0 0 0 0 0 -1 -1 -1 -1 0 0 0 0 0 0 0 
0
TEXT
8
DBLAYERS
10
0
20
-475.488
40
1.778
1
Layer_154:=154 0 0 0 0 0 0 0 0 0 0 2 0 0 0 0 0 0 0 -1 -1 -1 -1 0 0 0 0 0 0 0 
0
TEXT
8
DBLAYERS
10
0
20
-478.536
40
1.778
1
Layer_155:=155 0 0 0 0 0 0 0 0 0 0 2 0 0 0 0 0 0 0 -1 -1 -1 -1 0 0 0 0 0 0 0 
0
TEXT
8
DBLAYERS
10
0
20
-481.584
40
1.778
1
Layer_156:=156 0 0 0 0 0 0 0 0 0 0 2 0 0 0 0 0 0 0 -1 -1 -1 -1 0 0 0 0 0 0 0 
0
TEXT
8
DBLAYERS
10
0
20
-484.632
40
1.778
1
Layer_157:=157 0 0 0 0 0 0 0 0 0 0 2 0 0 0 0 0 0 0 -1 -1 -1 -1 0 0 0 0 0 0 0 
0
TEXT
8
DBLAYERS
10
0
20
-487.68
40
1.778
1
Layer_158:=158 0 0 0 0 0 0 0 0 0 0 2 0 0 0 0 0 0 0 -1 -1 -1 -1 0 0 0 0 0 0 0 
0
TEXT
8
DBLAYERS
10
0
20
-490.728
40
1.778
1
Layer_159:=159 0 0 0 0 0 0 0 0 0 0 2 0 0 0 0 0 0 0 -1 -1 -1 -1 0 0 0 0 0 0 0 
0
TEXT
8
DBLAYERS
10
0
20
-493.776
40
1.778
1
Layer_160:=160 0 0 0 0 0 0 0 0 0 0 2 0 0 0 0 0 0 0 -1 -1 -1 -1 0 0 0 0 0 0 0 
0
TEXT
8
DBLAYERS
10
0
20
-496.824
40
1.778
1
Layer_161:=161 0 0 0 0 0 0 0 0 0 0 2 0 0 0 0 0 0 0 -1 -1 -1 -1 0 0 0 0 0 0 0 
0
TEXT
8
DBLAYERS
10
0
20
-499.872
40
1.778
1
Layer_162:=162 0 0 0 0 0 0 0 0 0 0 2 0 0 0 0 0 0 0 -1 -1 -1 -1 0 0 0 0 0 0 0 
0
TEXT
8
DBLAYERS
10
0
20
-502.92
40
1.778
1
Layer_163:=163 0 0 0 0 0 0 0 0 0 0 2 0 0 0 0 0 0 0 -1 -1 -1 -1 0 0 0 0 0 0 0 
0
TEXT
8
DBLAYERS
10
0
20
-505.968
40
1.778
1
Layer_164:=164 0 0 0 0 0 0 0 0 0 0 2 0 0 0 0 0 0 0 -1 -1 -1 -1 0 0 0 0 0 0 0 
0
TEXT
8
DBLAYERS
10
0
20
-509.016
40
1.778
1
Layer_165:=165 0 0 0 0 0 0 0 0 0 0 2 0 0 0 0 0 0 0 -1 -1 -1 -1 0 0 0 0 0 0 0 
0
TEXT
8
DBLAYERS
10
0
20
-512.064
40
1.778
1
Layer_166:=166 0 0 0 0 0 0 0 0 0 0 2 0 0 0 0 0 0 0 -1 -1 -1 -1 0 0 0 0 0 0 0 
0
TEXT
8
DBLAYERS
10
0
20
-515.112
40
1.778
1
Layer_167:=167 0 0 0 0 0 0 0 0 0 0 2 0 0 0 0 0 0 0 -1 -1 -1 -1 0 0 0 0 0 0 0 
0
TEXT
8
DBLAYERS
10
0
20
-518.16
40
1.778
1
Layer_168:=168 0 0 0 0 0 0 0 0 0 0 2 0 0 0 0 0 0 0 -1 -1 -1 -1 0 0 0 0 0 0 0 
0
TEXT
8
DBLAYERS
10
0
20
-521.208
40
1.778
1
Layer_169:=169 0 0 0 0 0 0 0 0 0 0 2 0 0 0 0 0 0 0 -1 -1 -1 -1 0 0 0 0 0 0 0 
0
TEXT
8
DBLAYERS
10
0
20
-524.256
40
1.778
1
Layer_170:=170 0 0 0 0 0 0 0 0 0 0 2 0 0 0 0 0 0 0 -1 -1 -1 -1 0 0 0 0 0 0 0 
0
TEXT
8
DBLAYERS
10
0
20
-527.304
40
1.778
1
Layer_171:=171 0 0 0 0 0 0 0 0 0 0 2 0 0 0 0 0 0 0 -1 -1 -1 -1 0 0 0 0 0 0 0 
0
TEXT
8
DBLAYERS
10
0
20
-530.352
40
1.778
1
Layer_172:=172 0 0 0 0 0 0 0 0 0 0 2 0 0 0 0 0 0 0 -1 -1 -1 -1 0 0 0 0 0 0 0 
0
TEXT
8
DBLAYERS
10
0
20
-533.4
40
1.778
1
Layer_173:=173 0 0 0 0 0 0 0 0 0 0 2 0 0 0 0 0 0 0 -1 -1 -1 -1 0 0 0 0 0 0 0 
0
TEXT
8
DBLAYERS
10
0
20
-536.448
40
1.778
1
Layer_174:=174 0 0 0 0 0 0 0 0 0 0 2 0 0 0 0 0 0 0 -1 -1 -1 -1 0 0 0 0 0 0 0 
0
TEXT
8
DBLAYERS
10
0
20
-539.496
40
1.778
1
Layer_175:=175 0 0 0 0 0 0 0 0 0 0 2 0 0 0 0 0 0 0 -1 -1 -1 -1 0 0 0 0 0 0 0 
0
TEXT
8
DBLAYERS
10
0
20
-542.544
40
1.778
1
Layer_176:=176 0 0 0 0 0 0 0 0 0 0 2 0 0 0 0 0 0 0 -1 -1 -1 -1 0 0 0 0 0 0 0 
0
TEXT
8
DBLAYERS
10
0
20
-545.592
40
1.778
1
Layer_177:=177 0 0 0 0 0 0 0 0 0 0 2 0 0 0 0 0 0 0 -1 -1 -1 -1 0 0 0 0 0 0 0 
0
TEXT
8
DBLAYERS
10
0
20
-548.64
40
1.778
1
Layer_178:=178 0 0 0 0 0 0 0 0 0 0 2 0 0 0 0 0 0 0 -1 -1 -1 -1 0 0 0 0 0 0 0 
0
TEXT
8
DBLAYERS
10
0
20
-551.688
40
1.778
1
Layer_179:=179 0 0 0 0 0 0 0 0 0 0 2 0 0 0 0 0 0 0 -1 -1 -1 -1 0 0 0 0 0 0 0 
0
TEXT
8
DBLAYERS
10
0
20
-554.736
40
1.778
1
Layer_180:=180 0 0 0 0 0 0 0 0 0 0 2 0 0 0 0 0 0 0 -1 -1 -1 -1 0 0 0 0 0 0 0 
0
TEXT
8
DBLAYERS
10
0
20
-557.784
40
1.778
1
Layer_181:=181 0 0 0 0 0 0 0 0 0 0 2 0 0 0 0 0 0 0 -1 -1 -1 -1 0 0 0 0 0 0 0 
0
TEXT
8
DBLAYERS
10
0
20
-560.832
40
1.778
1
Layer_182:=182 0 0 0 0 0 0 0 0 0 0 2 0 0 0 0 0 0 0 -1 -1 -1 -1 0 0 0 0 0 0 0 
0
TEXT
8
DBLAYERS
10
0
20
-563.88
40
1.778
1
Layer_183:=183 0 0 0 0 0 0 0 0 0 0 2 0 0 0 0 0 0 0 -1 -1 -1 -1 0 0 0 0 0 0 0 
0
TEXT
8
DBLAYERS
10
0
20
-566.928
40
1.778
1
Layer_184:=184 0 0 0 0 0 0 0 0 0 0 2 0 0 0 0 0 0 0 -1 -1 -1 -1 0 0 0 0 0 0 0 
0
TEXT
8
DBLAYERS
10
0
20
-569.976
40
1.778
1
Layer_185:=185 0 0 0 0 0 0 0 0 0 0 2 0 0 0 0 0 0 0 -1 -1 -1 -1 0 0 0 0 0 0 0 
0
TEXT
8
DBLAYERS
10
0
20
-573.024
40
1.778
1
Layer_186:=186 0 0 0 0 0 0 0 0 0 0 2 0 0 0 0 0 0 0 -1 -1 -1 -1 0 0 0 0 0 0 0 
0
TEXT
8
DBLAYERS
10
0
20
-576.072
40
1.778
1
Layer_187:=187 0 0 0 0 0 0 0 0 0 0 2 0 0 0 0 0 0 0 -1 -1 -1 -1 0 0 0 0 0 0 0 
0
TEXT
8
DBLAYERS
10
0
20
-579.12
40
1.778
1
Layer_188:=188 0 0 0 0 0 0 0 0 0 0 2 0 0 0 0 0 0 0 -1 -1 -1 -1 0 0 0 0 0 0 0 
0
TEXT
8
DBLAYERS
10
0
20
-582.168
40
1.778
1
Layer_189:=189 0 0 0 0 0 0 0 0 0 0 2 0 0 0 0 0 0 0 -1 -1 -1 -1 0 0 0 0 0 0 0 
0
TEXT
8
DBLAYERS
10
0
20
-585.216
40
1.778
1
Layer_190:=190 0 0 0 0 0 0 0 0 0 0 2 0 0 0 0 0 0 0 -1 -1 -1 -1 0 0 0 0 0 0 0 
0
TEXT
8
DBLAYERS
10
0
20
-588.264
40
1.778
1
Layer_191:=191 0 0 0 0 0 0 0 0 0 0 2 0 0 0 0 0 0 0 -1 -1 -1 -1 0 0 0 0 0 0 0 
0
TEXT
8
DBLAYERS
10
0
20
-591.312
40
1.778
1
Layer_192:=192 0 0 0 0 0 0 0 0 0 0 2 0 0 0 0 0 0 0 -1 -1 -1 -1 0 0 0 0 0 0 0 
0
TEXT
8
DBLAYERS
10
0
20
-594.36
40
1.778
1
Layer_193:=193 0 0 0 0 0 0 0 0 0 0 2 0 0 0 0 0 0 0 -1 -1 -1 -1 0 0 0 0 0 0 0 
0
TEXT
8
DBLAYERS
10
0
20
-597.408
40
1.778
1
Layer_194:=194 0 0 0 0 0 0 0 0 0 0 2 0 0 0 0 0 0 0 -1 -1 -1 -1 0 0 0 0 0 0 0 
0
TEXT
8
DBLAYERS
10
0
20
-600.456
40
1.778
1
Layer_195:=195 0 0 0 0 0 0 0 0 0 0 2 0 0 0 0 0 0 0 -1 -1 -1 -1 0 0 0 0 0 0 0 
0
TEXT
8
DBLAYERS
10
0
20
-603.504
40
1.778
1
Layer_196:=196 0 0 0 0 0 0 0 0 0 0 2 0 0 0 0 0 0 0 -1 -1 -1 -1 0 0 0 0 0 0 0 
0
TEXT
8
DBLAYERS
10
0
20
-606.552
40
1.778
1
Layer_197:=197 0 0 0 0 0 0 0 0 0 0 2 0 0 0 0 0 0 0 -1 -1 -1 -1 0 0 0 0 0 0 0 
0
TEXT
8
DBLAYERS
10
0
20
-609.6
40
1.778
1
Layer_198:=198 0 0 0 0 0 0 0 0 0 0 2 0 0 0 0 0 0 0 -1 -1 -1 -1 0 0 0 0 0 0 0 
0
TEXT
8
DBLAYERS
10
0
20
-612.648
40
1.778
1
Layer_199:=199 0 0 0 0 0 0 0 0 0 0 2 0 0 0 0 0 0 0 -1 -1 -1 -1 0 0 0 0 0 0 0 
0
TEXT
8
DBLAYERS
10
0
20
-615.696
40
1.778
1
Layer_200:=200 0 0 0 0 0 0 0 0 0 0 2 0 0 0 0 0 0 0 -1 -1 -1 -1 0 0 0 0 0 0 0 
0
TEXT
8
DBLAYERS
10
0
20
-618.744
40
1.778
1
Layer_201:=201 0 0 0 0 0 0 0 0 0 0 2 0 0 0 0 0 0 0 -1 -1 -1 -1 0 0 0 0 0 0 0 
0
TEXT
8
DBLAYERS
10
0
20
-621.792
40
1.778
1
Layer_202:=202 0 0 0 0 0 0 0 0 0 0 2 0 0 0 0 0 0 0 -1 -1 -1 -1 0 0 0 0 0 0 0 
0
TEXT
8
DBLAYERS
10
0
20
-624.84
40
1.778
1
Layer_203:=203 0 0 0 0 0 0 0 0 0 0 2 0 0 0 0 0 0 0 -1 -1 -1 -1 0 0 0 0 0 0 0 
0
TEXT
8
DBLAYERS
10
0
20
-627.888
40
1.778
1
Layer_204:=204 0 0 0 0 0 0 0 0 0 0 2 0 0 0 0 0 0 0 -1 -1 -1 -1 0 0 0 0 0 0 0 
0
TEXT
8
DBLAYERS
10
0
20
-630.936
40
1.778
1
Layer_205:=205 0 0 0 0 0 0 0 0 0 0 2 0 0 0 0 0 0 0 -1 -1 -1 -1 0 0 0 0 0 0 0 
0
TEXT
8
DBLAYERS
10
0
20
-633.984
40
1.778
1
Layer_206:=206 0 0 0 0 0 0 0 0 0 0 2 0 0 0 0 0 0 0 -1 -1 -1 -1 0 0 0 0 0 0 0 
0
TEXT
8
DBLAYERS
10
0
20
-637.032
40
1.778
1
Layer_207:=207 0 0 0 0 0 0 0 0 0 0 2 0 0 0 0 0 0 0 -1 -1 -1 -1 0 0 0 0 0 0 0 
0
TEXT
8
DBLAYERS
10
0
20
-640.08
40
1.778
1
Layer_208:=208 0 0 0 0 0 0 0 0 0 0 2 0 0 0 0 0 0 0 -1 -1 -1 -1 0 0 0 0 0 0 0 
0
TEXT
8
DBLAYERS
10
0
20
-643.128
40
1.778
1
Layer_209:=209 0 0 0 0 0 0 0 0 0 0 2 0 0 0 0 0 0 0 -1 -1 -1 -1 0 0 0 0 0 0 0 
0
TEXT
8
DBLAYERS
10
0
20
-646.176
40
1.778
1
Layer_210:=210 0 0 0 0 0 0 0 0 0 0 2 0 0 0 0 0 0 0 -1 -1 -1 -1 0 0 0 0 0 0 0 
0
TEXT
8
DBLAYERS
10
0
20
-649.224
40
1.778
1
Layer_211:=211 0 0 0 0 0 0 0 0 0 0 2 0 0 0 0 0 0 0 -1 -1 -1 -1 0 0 0 0 0 0 0 
0
TEXT
8
DBLAYERS
10
0
20
-652.272
40
1.778
1
Layer_212:=212 0 0 0 0 0 0 0 0 0 0 2 0 0 0 0 0 0 0 -1 -1 -1 -1 0 0 0 0 0 0 0 
0
TEXT
8
DBLAYERS
10
0
20
-655.32
40
1.778
1
Layer_213:=213 0 0 0 0 0 0 0 0 0 0 2 0 0 0 0 0 0 0 -1 -1 -1 -1 0 0 0 0 0 0 0 
0
TEXT
8
DBLAYERS
10
0
20
-658.368
40
1.778
1
Layer_214:=214 0 0 0 0 0 0 0 0 0 0 2 0 0 0 0 0 0 0 -1 -1 -1 -1 0 0 0 0 0 0 0 
0
TEXT
8
DBLAYERS
10
0
20
-661.416
40
1.778
1
Layer_215:=215 0 0 0 0 0 0 0 0 0 0 2 0 0 0 0 0 0 0 -1 -1 -1 -1 0 0 0 0 0 0 0 
0
TEXT
8
DBLAYERS
10
0
20
-664.464
40
1.778
1
Layer_216:=216 0 0 0 0 0 0 0 0 0 0 2 0 0 0 0 0 0 0 -1 -1 -1 -1 0 0 0 0 0 0 0 
0
TEXT
8
DBLAYERS
10
0
20
-667.512
40
1.778
1
Layer_217:=217 0 0 0 0 0 0 0 0 0 0 2 0 0 0 0 0 0 0 -1 -1 -1 -1 0 0 0 0 0 0 0 
0
TEXT
8
DBLAYERS
10
0
20
-670.56
40
1.778
1
Layer_218:=218 0 0 0 0 0 0 0 0 0 0 2 0 0 0 0 0 0 0 -1 -1 -1 -1 0 0 0 0 0 0 0 
0
TEXT
8
DBLAYERS
10
0
20
-673.608
40
1.778
1
Layer_219:=219 0 0 0 0 0 0 0 0 0 0 2 0 0 0 0 0 0 0 -1 -1 -1 -1 0 0 0 0 0 0 0 
0
TEXT
8
DBLAYERS
10
0
20
-676.656
40
1.778
1
Layer_220:=220 0 0 0 0 0 0 0 0 0 0 2 0 0 0 0 0 0 0 -1 -1 -1 -1 0 0 0 0 0 0 0 
0
TEXT
8
DBLAYERS
10
0
20
-679.704
40
1.778
1
Layer_221:=221 0 0 0 0 0 0 0 0 0 0 2 0 0 0 0 0 0 0 -1 -1 -1 -1 0 0 0 0 0 0 0 
0
TEXT
8
DBLAYERS
10
0
20
-682.752
40
1.778
1
Layer_222:=222 0 0 0 0 0 0 0 0 0 0 2 0 0 0 0 0 0 0 -1 -1 -1 -1 0 0 0 0 0 0 0 
0
TEXT
8
DBLAYERS
10
0
20
-685.8
40
1.778
1
Layer_223:=223 0 0 0 0 0 0 0 0 0 0 2 0 0 0 0 0 0 0 -1 -1 -1 -1 0 0 0 0 0 0 0 
0
TEXT
8
DBLAYERS
10
0
20
-688.848
40
1.778
1
Layer_224:=224 0 0 0 0 0 0 0 0 0 0 2 0 0 0 0 0 0 0 -1 -1 -1 -1 0 0 0 0 0 0 0 
0
TEXT
8
DBLAYERS
10
0
20
-691.896
40
1.778
1
Layer_225:=225 0 0 0 0 0 0 0 0 0 0 2 0 0 0 0 0 0 0 -1 -1 -1 -1 0 0 0 0 0 0 0 
0
TEXT
8
DBLAYERS
10
0
20
-694.944
40
1.778
1
Layer_226:=226 0 0 0 0 0 0 0 0 0 0 2 0 0 0 0 0 0 0 -1 -1 -1 -1 0 0 0 0 0 0 0 
0
TEXT
8
DBLAYERS
10
0
20
-697.992
40
1.778
1
Layer_227:=227 0 0 0 0 0 0 0 0 0 0 2 0 0 0 0 0 0 0 -1 -1 -1 -1 0 0 0 0 0 0 0 
0
TEXT
8
DBLAYERS
10
0
20
-701.04
40
1.778
1
Layer_228:=228 0 0 0 0 0 0 0 0 0 0 2 0 0 0 0 0 0 0 -1 -1 -1 -1 0 0 0 0 0 0 0 
0
TEXT
8
DBLAYERS
10
0
20
-704.088
40
1.778
1
Layer_229:=229 0 0 0 0 0 0 0 0 0 0 2 0 0 0 0 0 0 0 -1 -1 -1 -1 0 0 0 0 0 0 0 
0
TEXT
8
DBLAYERS
10
0
20
-707.136
40
1.778
1
Layer_230:=230 0 0 0 0 0 0 0 0 0 0 2 0 0 0 0 0 0 0 -1 -1 -1 -1 0 0 0 0 0 0 0 
0
TEXT
8
DBLAYERS
10
0
20
-710.184
40
1.778
1
Layer_231:=231 0 0 0 0 0 0 0 0 0 0 2 0 0 0 0 0 0 0 -1 -1 -1 -1 0 0 0 0 0 0 0 
0
TEXT
8
DBLAYERS
10
0
20
-713.232
40
1.778
1
Layer_232:=232 0 0 0 0 0 0 0 0 0 0 2 0 0 0 0 0 0 0 -1 -1 -1 -1 0 0 0 0 0 0 0 
0
TEXT
8
DBLAYERS
10
0
20
-716.28
40
1.778
1
Layer_233:=233 0 0 0 0 0 0 0 0 0 0 2 0 0 0 0 0 0 0 -1 -1 -1 -1 0 0 0 0 0 0 0 
0
TEXT
8
DBLAYERS
10
0
20
-719.328
40
1.778
1
Layer_234:=234 0 0 0 0 0 0 0 0 0 0 2 0 0 0 0 0 0 0 -1 -1 -1 -1 0 0 0 0 0 0 0 
0
TEXT
8
DBLAYERS
10
0
20
-722.376
40
1.778
1
Layer_235:=235 0 0 0 0 0 0 0 0 0 0 2 0 0 0 0 0 0 0 -1 -1 -1 -1 0 0 0 0 0 0 0 
0
TEXT
8
DBLAYERS
10
0
20
-725.424
40
1.778
1
Layer_236:=236 0 0 0 0 0 0 0 0 0 0 2 0 0 0 0 0 0 0 -1 -1 -1 -1 0 0 0 0 0 0 0 
0
TEXT
8
DBLAYERS
10
0
20
-728.472
40
1.778
1
Layer_237:=237 0 0 0 0 0 0 0 0 0 0 2 0 0 0 0 0 0 0 -1 -1 -1 -1 0 0 0 0 0 0 0 
0
TEXT
8
DBLAYERS
10
0
20
-731.52
40
1.778
1
Layer_238:=238 0 0 0 0 0 0 0 0 0 0 2 0 0 0 0 0 0 0 -1 -1 -1 -1 0 0 0 0 0 0 0 
0
TEXT
8
DBLAYERS
10
0
20
-734.568
40
1.778
1
Layer_239:=239 0 0 0 0 0 0 0 0 0 0 2 0 0 0 0 0 0 0 -1 -1 -1 -1 0 0 0 0 0 0 0 
0
TEXT
8
DBLAYERS
10
0
20
-737.616
40
1.778
1
Layer_240:=240 0 0 0 0 0 0 0 0 0 0 2 0 0 0 0 0 0 0 -1 -1 -1 -1 0 0 0 0 0 0 0 
0
TEXT
8
DBLAYERS
10
0
20
-740.664
40
1.778
1
Layer_241:=241 0 0 0 0 0 0 0 0 0 0 2 0 0 0 0 0 0 0 -1 -1 -1 -1 0 0 0 0 0 0 0 
0
TEXT
8
DBLAYERS
10
0
20
-743.712
40
1.778
1
Layer_242:=242 0 0 0 0 0 0 0 0 0 0 2 0 0 0 0 0 0 0 -1 -1 -1 -1 0 0 0 0 0 0 0 
0
TEXT
8
DBLAYERS
10
0
20
-746.76
40
1.778
1
Layer_243:=243 0 0 0 0 0 0 0 0 0 0 2 0 0 0 0 0 0 0 -1 -1 -1 -1 0 0 0 0 0 0 0 
0
TEXT
8
DBLAYERS
10
0
20
-749.808
40
1.778
1
Layer_244:=244 0 0 0 0 0 0 0 0 0 0 2 0 0 0 0 0 0 0 -1 -1 -1 -1 0 0 0 0 0 0 0 
0
TEXT
8
DBLAYERS
10
0
20
-752.856
40
1.778
1
Layer_245:=245 0 0 0 0 0 0 0 0 0 0 2 0 0 0 0 0 0 0 -1 -1 -1 -1 0 0 0 0 0 0 0 
0
TEXT
8
DBLAYERS
10
0
20
-755.904
40
1.778
1
Layer_246:=246 0 0 0 0 0 0 0 0 0 0 2 0 0 0 0 0 0 0 -1 -1 -1 -1 0 0 0 0 0 0 0 
0
TEXT
8
DBLAYERS
10
0
20
-758.952
40
1.778
1
Layer_247:=247 0 0 0 0 0 0 0 0 0 0 2 0 0 0 0 0 0 0 -1 -1 -1 -1 0 0 0 0 0 0 0 
0
TEXT
8
DBLAYERS
10
0
20
-762
40
1.778
1
Layer_248:=248 0 0 0 0 0 0 0 0 0 0 2 0 0 0 0 0 0 0 -1 -1 -1 -1 0 0 0 0 0 0 0 
0
TEXT
8
DBLAYERS
10
0
20
-765.048
40
1.778
1
Layer_249:=249 0 0 0 0 0 0 0 0 0 0 2 0 0 0 0 0 0 0 -1 -1 -1 -1 0 0 0 0 0 0 0 
0
TEXT
8
DBLAYERS
10
0
20
-768.096
40
1.778
1
Layer_250:=250 0 0 0 0 0 0 0 0 0 0 2 0 0 0 0 0 0 0 -1 -1 -1 -1 0 0 0 0 0 0 0 
0
ENDBLK
999
*** POWERPCB  BOARD ***
0
BLOCK
2
BOARD_1
8
0
10
0
20
0
3
BOARD_1
70
64
0
POLYLINE
8
BOARD_OUTLINE_00
66
1
40
0.0254
41
0.0254
70
1
0
VERTEX
8
BOARD_OUTLINE_00
10
0.254
20
0.004064
42
-0.4599486104
0
VERTEX
8
BOARD_OUTLINE_00
10
0
20
0.258064
0
VERTEX
8
BOARD_OUTLINE_00
10
0
20
3.5416486667
0
VERTEX
8
BOARD_OUTLINE_00
10
-0.814788
20
4.357538
0
VERTEX
8
BOARD_OUTLINE_00
10
-22.669788
20
4.357538
0
VERTEX
8
BOARD_OUTLINE_00
10
-22.669788
20
9.030538
42
-0.4101298895
0
VERTEX
8
BOARD_OUTLINE_00
10
-19.201788
20
12.530538
0
VERTEX
8
BOARD_OUTLINE_00
10
29.849212
20
12.530538
42
-0.4126808073
0
VERTEX
8
BOARD_OUTLINE_00
10
33.330212
20
9.037538
0
VERTEX
8
BOARD_OUTLINE_00
10
33.330212
20
4.356538
0
VERTEX
8
BOARD_OUTLINE_00
10
20.6132733333
20
4.356538
0
VERTEX
8
BOARD_OUTLINE_00
10
20.6132733333
20
4.3567713333
0
VERTEX
8
BOARD_OUTLINE_00
10
19.857212
20
3.60071
0
VERTEX
8
BOARD_OUTLINE_00
10
19.857212
20
0.258064
42
-0.4467980784
0
VERTEX
8
BOARD_OUTLINE_00
10
19.603212
20
0.004064
0
VERTEX
8
BOARD_OUTLINE_00
10
4.3999993333
20
0.006896
0
VERTEX
8
BOARD_OUTLINE_00
10
4.3999993333
20
2.928896
42
0.9792723507
0
VERTEX
8
BOARD_OUTLINE_00
10
3.1999993333
20
2.928896
0
VERTEX
8
BOARD_OUTLINE_00
10
3.1999993333
20
0.004064
0
SEQEND
0
INSERT
2
SMOOTH_0$0254
8
BOARD_OUTLINE_00
10
0.254
20
0.004064
0
INSERT
2
SMOOTH_0$0254
8
BOARD_OUTLINE_00
10
0
20
0.258064
0
INSERT
2
SMOOTH_0$0254
8
BOARD_OUTLINE_00
10
0
20
3.5416486667
0
INSERT
2
SMOOTH_0$0254
8
BOARD_OUTLINE_00
10
-0.814788
20
4.357538
0
INSERT
2
SMOOTH_0$0254
8
BOARD_OUTLINE_00
10
-22.669788
20
4.357538
0
INSERT
2
SMOOTH_0$0254
8
BOARD_OUTLINE_00
10
-22.669788
20
9.030538
0
ENDBLK
999
*** POWERPCB  2DLINE ***
999
*** POWERPCB  COMPONENT ***
0
BLOCK
2
PART_TOP_0
8
0
10
0
20
0
3
PART_TOP_0
70
64
0
INSERT
2
SYM_TOP_3
8
0
10
0
20
0
0
INSERT
2
PKG_0
8
0
10
0
20
0
0
TEXT
8
PART_NAME_TOP
10
0
20
0
40
1.778
1
J1
73
393769856
11
0
21
0
41
0.75
7
W0$254
0
TEXT
8
PART_TYPE_TOP
10
0
20
-2.54
40
1.778
1
FPC40PIN-0.5MM-FPC
73
393769856
11
0
21
-2.54
41
0.75
7
W0$254
0
TEXT
8
PART_INFO
10
0
20
-5.08
40
1.778
1
000000
73
393769856
11
0
21
-5.08
41
0.75
7
W0$254
0
TEXT
8
PART_PTS
10
0
20
-7.62
40
1.778
1
1 2 3 4 5 6 7 8 9 10 11 12 13 14 15 16 17 18 19 20 21 22 23 24 25 26 27 28 29 30 31 32 33 34 35 36 37 38 39 40 
73
393769856
11
0
21
-7.62
41
0.75
7
W0$254
0
ENDBLK
0
BLOCK
2
PART_TOP_1
8
0
10
0
20
0
3
PART_TOP_1
70
64
0
INSERT
2
SYM_TOP_4
8
0
10
0
20
0
0
INSERT
2
PKG_1
8
0
10
0
20
0
0
TEXT
8
PART_NAME_TOP
10
0
20
0
40
1.778
1
U8500
73
393769856
11
0
21
0
41
0.75
7
W0$254
0
TEXT
8
PART_TYPE_TOP
10
0
20
-2.54
40
1.778
1
M2_NGFF_MKEY_PLUS
73
393769856
11
0
21
-2.54
41
0.75
7
W0$254
0
TEXT
8
PART_INFO
10
0
20
-5.08
40
1.778
1
000000
73
393769856
11
0
21
-5.08
41
0.75
7
W0$254
0
TEXT
8
PART_PTS
10
0
20
-7.62
40
1.778
1
1 2 3 4 5 6 7 8 9 10 11 12 13 14 15 16 17 18 19 20 21 22 23 24 25 28 29 30 31 32 33 34 35 36 40 41 42 43 59 60 65 66 67 
73
393769856
11
0
21
-7.62
41
0.75
7
W0$254
0
ENDBLK
0
BLOCK
2
PART_TOP_2
8
0
10
0
20
0
3
PART_TOP_2
70
64
0
INSERT
2
SYM_TOP_7
8
0
10
0
20
0
0
INSERT
2
PKG_2
8
0
10
0
20
0
0
TEXT
8
PART_NAME_TOP
10
0
20
0
40
1.778
1
U1
73
393769856
11
0
21
0
41
0.75
7
W0$254
0
TEXT
8
PART_TYPE_TOP
10
0
20
-2.54
40
1.778
1
HOLD3.5
73
393769856
11
0
21
-2.54
41
0.75
7
W0$254
0
TEXT
8
PART_INFO
10
0
20
-5.08
40
1.778
1
000100
73
393769856
11
0
21
-5.08
41
0.75
7
W0$254
0
TEXT
8
PART_PTS
10
0
20
-7.62
40
1.778
1
1 
73
393769856
11
0
21
-7.62
41
0.75
7
W0$254
0
ENDBLK
0
BLOCK
2
PART_TOP_3
8
0
10
0
20
0
3
PART_TOP_3
70
64
0
INSERT
2
SYM_TOP_7
8
0
10
0
20
0
0
INSERT
2
PKG_2
8
0
10
0
20
0
0
TEXT
8
PART_NAME_TOP
10
0
20
0
40
1.778
1
U2
73
393769856
11
0
21
0
41
0.75
7
W0$254
0
TEXT
8
PART_TYPE_TOP
10
0
20
-2.54
40
1.778
1
HOLD3.5
73
393769856
11
0
21
-2.54
41
0.75
7
W0$254
0
TEXT
8
PART_INFO
10
0
20
-5.08
40
1.778
1
000100
73
393769856
11
0
21
-5.08
41
0.75
7
W0$254
0
TEXT
8
PART_PTS
10
0
20
-7.62
40
1.778
1
1 
73
393769856
11
0
21
-7.62
41
0.75
7
W0$254
0
ENDBLK
0
BLOCK
2
PART_TOP_4
8
0
10
0
20
0
3
PART_TOP_4
70
64
0
INSERT
2
SYM_TOP_6
8
0
10
0
20
0
0
INSERT
2
PKG_3
8
0
10
0
20
0
0
TEXT
8
LABEL_INFO
10
5.0292
20
0.0222253333
40
0.7112
1
0 0 0 2 0 1
73
2
11
5.0292
21
0.0222253333
41
0.75
7
W0$1016
0
TEXT
8
LABEL_ATTRIBUTE
10
5.0292
20
0.0222253333
40
0.7112
1
Value
73
2
11
5.0292
21
0.0222253333
41
0.75
7
W0$1016
0
TEXT
8
ATTRIBUTE_01
10
5.0292
20
0.0222253333
40
0.7112
1
 
73
3
11
5.0292
21
0.0222253333
41
0.75
7
W0$1016
0
TEXT
8
PART_NAME_TOP
10
0
20
0
40
1.778
1
D1
73
3
11
0
21
0
41
0.75
7
W0$254
0
TEXT
8
PART_TYPE_TOP
10
0
20
-2.54
40
1.778
1
DW
73
3
11
0
21
-2.54
41
0.75
7
W0$254
0
TEXT
8
PART_INFO
10
0
20
-5.08
40
1.778
1
000000
73
3
11
0
21
-5.08
41
0.75
7
W0$254
0
ENDBLK
0
BLOCK
2
PART_TOP_5
8
0
10
0
20
0
3
PART_TOP_5
70
64
0
INSERT
2
SYM_TOP_6
8
0
10
0
20
0
0
INSERT
2
PKG_3
8
0
10
0
20
0
0
TEXT
8
PART_NAME_TOP
10
0
20
0
40
1.778
1
D2
73
3
11
0
21
0
41
0.75
7
W0$254
0
TEXT
8
PART_TYPE_TOP
10
0
20
-2.54
40
1.778
1
DW
73
3
11
0
21
-2.54
41
0.75
7
W0$254
0
TEXT
8
PART_INFO
10
0
20
-5.08
40
1.778
1
000000
73
3
11
0
21
-5.08
41
0.75
7
W0$254
0
ENDBLK
0
BLOCK
2
SYM_TOP_3
8
0
10
0
20
0
3
SYM_TOP_3
70
64
0
TEXT
8
SYM_NAME
10
0
20
0
40
1.778
1
FPC40PIN-0.5MM-FPC
41
0.75
0
TEXT
8
SYM_PART_NAME_01
10
-11.176
20
-2.602
40
0.889
1
 
41
0.75
7
W0$127R0
0
TEXT
8
SYM_PART_TYPE_01
10
-11.146
20
-2.722
40
0.889
1
 
73
2
11
-11.146
21
-2.722
41
0.75
7
W0$127R0
0
INSERT
2
PART_BODY_TOP_4
8
0
10
0
20
0
0
INSERT
2
STK_TOP_4
8
0
10
-19.5
20
0
0
TEXT
8
SYM_TERMINAL
10
0
20
-3.048
40
1.778
1
1
0
INSERT
2
STK_TOP_4
8
0
10
-19
20
0
0
TEXT
8
SYM_TERMINAL
10
0
20
-6.096
40
1.778
1
2
0
INSERT
2
STK_TOP_4
8
0
10
-18.5
20
0
0
TEXT
8
SYM_TERMINAL
10
0
20
-9.144
40
1.778
1
3
0
INSERT
2
STK_TOP_4
8
0
10
-18
20
0
0
TEXT
8
SYM_TERMINAL
10
0
20
-12.192
40
1.778
1
4
0
INSERT
2
STK_TOP_4
8
0
10
-17.5
20
0
0
TEXT
8
SYM_TERMINAL
10
0
20
-15.24
40
1.778
1
5
0
INSERT
2
STK_TOP_4
8
0
10
-17
20
0
0
TEXT
8
SYM_TERMINAL
10
0
20
-18.288
40
1.778
1
6
0
INSERT
2
STK_TOP_4
8
0
10
-16.5
20
0
0
TEXT
8
SYM_TERMINAL
10
0
20
-21.336
40
1.778
1
7
0
INSERT
2
STK_TOP_4
8
0
10
-16
20
0
0
TEXT
8
SYM_TERMINAL
10
0
20
-24.384
40
1.778
1
8
0
INSERT
2
STK_TOP_4
8
0
10
-15.5
20
0
0
TEXT
8
SYM_TERMINAL
10
0
20
-27.432
40
1.778
1
9
0
INSERT
2
STK_TOP_4
8
0
10
-15
20
0
0
TEXT
8
SYM_TERMINAL
10
0
20
-30.48
40
1.778
1
10
0
INSERT
2
STK_TOP_4
8
0
10
-14.5
20
0
0
TEXT
8
SYM_TERMINAL
10
0
20
-33.528
40
1.778
1
11
0
INSERT
2
STK_TOP_4
8
0
10
-14
20
0
0
TEXT
8
SYM_TERMINAL
10
0
20
-36.576
40
1.778
1
12
0
INSERT
2
STK_TOP_4
8
0
10
-13.5
20
0
0
TEXT
8
SYM_TERMINAL
10
0
20
-39.624
40
1.778
1
13
0
INSERT
2
STK_TOP_4
8
0
10
-13
20
0
0
TEXT
8
SYM_TERMINAL
10
0
20
-42.672
40
1.778
1
14
0
INSERT
2
STK_TOP_4
8
0
10
-12.5
20
0
0
TEXT
8
SYM_TERMINAL
10
0
20
-45.72
40
1.778
1
15
0
INSERT
2
STK_TOP_4
8
0
10
-12
20
0
0
TEXT
8
SYM_TERMINAL
10
0
20
-48.768
40
1.778
1
16
0
INSERT
2
STK_TOP_4
8
0
10
-11.5
20
0
0
TEXT
8
SYM_TERMINAL
10
0
20
-51.816
40
1.778
1
17
0
INSERT
2
STK_TOP_4
8
0
10
-11
20
0
0
TEXT
8
SYM_TERMINAL
10
0
20
-54.864
40
1.778
1
18
0
INSERT
2
STK_TOP_4
8
0
10
-10.5
20
0
0
TEXT
8
SYM_TERMINAL
10
0
20
-57.912
40
1.778
1
19
0
INSERT
2
STK_TOP_4
8
0
10
-10
20
0
0
TEXT
8
SYM_TERMINAL
10
0
20
-60.96
40
1.778
1
20
0
INSERT
2
STK_TOP_4
8
0
10
-9.5
20
0
0
TEXT
8
SYM_TERMINAL
10
0
20
-64.008
40
1.778
1
21
0
INSERT
2
STK_TOP_4
8
0
10
-9
20
0
0
TEXT
8
SYM_TERMINAL
10
0
20
-67.056
40
1.778
1
22
0
INSERT
2
STK_TOP_4
8
0
10
-8.5
20
0
0
TEXT
8
SYM_TERMINAL
10
0
20
-70.104
40
1.778
1
23
0
INSERT
2
STK_TOP_4
8
0
10
-8
20
0
0
TEXT
8
SYM_TERMINAL
10
0
20
-73.152
40
1.778
1
24
0
INSERT
2
STK_TOP_4
8
0
10
-7.5
20
0
0
TEXT
8
SYM_TERMINAL
10
0
20
-76.2
40
1.778
1
25
0
INSERT
2
STK_TOP_4
8
0
10
-7
20
0
0
TEXT
8
SYM_TERMINAL
10
0
20
-79.248
40
1.778
1
26
0
INSERT
2
STK_TOP_4
8
0
10
-6.5
20
0
0
TEXT
8
SYM_TERMINAL
10
0
20
-82.296
40
1.778
1
27
0
INSERT
2
STK_TOP_4
8
0
10
-6
20
0
0
TEXT
8
SYM_TERMINAL
10
0
20
-85.344
40
1.778
1
28
0
INSERT
2
STK_TOP_4
8
0
10
-5.5
20
0
0
TEXT
8
SYM_TERMINAL
10
0
20
-88.392
40
1.778
1
29
0
INSERT
2
STK_TOP_4
8
0
10
-5
20
0
0
TEXT
8
SYM_TERMINAL
10
0
20
-91.44
40
1.778
1
30
0
INSERT
2
STK_TOP_4
8
0
10
-4.5
20
0
0
TEXT
8
SYM_TERMINAL
10
0
20
-94.488
40
1.778
1
31
0
INSERT
2
STK_TOP_4
8
0
10
-4
20
0
0
TEXT
8
SYM_TERMINAL
10
0
20
-97.536
40
1.778
1
32
0
INSERT
2
STK_TOP_4
8
0
10
-3.5
20
0
0
TEXT
8
SYM_TERMINAL
10
0
20
-100.584
40
1.778
1
33
0
INSERT
2
STK_TOP_4
8
0
10
-3
20
0
0
TEXT
8
SYM_TERMINAL
10
0
20
-103.632
40
1.778
1
34
0
INSERT
2
STK_TOP_4
8
0
10
-2.5
20
0
0
TEXT
8
SYM_TERMINAL
10
0
20
-106.68
40
1.778
1
35
0
INSERT
2
STK_TOP_4
8
0
10
-2
20
0
0
TEXT
8
SYM_TERMINAL
10
0
20
-109.728
40
1.778
1
36
0
INSERT
2
STK_TOP_4
8
0
10
-1.5
20
0
0
TEXT
8
SYM_TERMINAL
10
0
20
-112.776
40
1.778
1
37
0
INSERT
2
STK_TOP_4
8
0
10
-1
20
0
0
TEXT
8
SYM_TERMINAL
10
0
20
-115.824
40
1.778
1
38
0
INSERT
2
STK_TOP_4
8
0
10
-0.5
20
0
0
TEXT
8
SYM_TERMINAL
10
0
20
-118.872
40
1.778
1
39
0
INSERT
2
STK_TOP_4
8
0
10
0
20
0
0
TEXT
8
SYM_TERMINAL
10
0
20
-121.92
40
1.778
1
40
0
INSERT
2
STK_TOP_5
8
0
10
-21.2
20
-2.775
0
TEXT
8
SYM_TERMINAL
10
0
20
-124.968
40
1.778
1
41
0
INSERT
2
STK_TOP_5
8
0
10
1.7
20
-2.775
0
TEXT
8
SYM_TERMINAL
10
0
20
-128.016
40
1.778
1
42
0
ENDBLK
0
BLOCK
2
PKG_0
8
0
10
0
20
0
3
PKG_0
70
64
0
TEXT
8
PKG_INFO
10
0
20
0
40
1.778
1
*SYM:= 3
0
TEXT
8
PKG_INFO
10
0
20
-3.048
40
1.778
1
*PKG:= 0 FPC40PIN-0.5MM-FPC UND
0
ENDBLK
0
BLOCK
2
SYM_TOP_4
8
0
10
0
20
0
3
SYM_TOP_4
70
64
0
TEXT
8
SYM_NAME
10
0
20
0
40
1.778
1
M2_NGFF_MKEY_PLUS
41
0.75
0
TEXT
8
SYM_PART_NAME_126
10
-21.5134986667
20
5.3250433333
40
0.889
1
 
41
0.75
7
W0$127R0
0
TEXT
8
SYM_ATTRIBUTE_126
10
-21.5134986667
20
4.0550433333
40
0.889
1
Comment
41
0.75
7
W0$127R0
0
INSERT
2
PART_BODY_TOP_5
8
0
10
0
20
0
0
INSERT
2
STK_TOP_6
8
0
10
0
20
0
0
TEXT
8
SYM_TERMINAL
10
0
20
-3.048
40
1.778
1
1
0
INSERT
2
STK_TOP_6
8
0
10
-0.5000026667
20
0.000018
0
TEXT
8
SYM_TERMINAL
10
0
20
-6.096
40
1.778
1
2
0
INSERT
2
STK_TOP_6
8
0
10
-0.9999873333
20
0.000018
0
TEXT
8
SYM_TERMINAL
10
0
20
-9.144
40
1.778
1
3
0
INSERT
2
STK_TOP_6
8
0
10
-1.500008
20
0.000018
0
TEXT
8
SYM_TERMINAL
10
0
20
-12.192
40
1.778
1
4
0
INSERT
2
STK_TOP_6
8
0
10
-1.9999926667
20
0.000018
0
TEXT
8
SYM_TERMINAL
10
0
20
-15.24
40
1.778
1
5
0
INSERT
2
STK_TOP_6
8
0
10
-2.4999773333
20
0.000018
0
TEXT
8
SYM_TERMINAL
10
0
20
-18.288
40
1.778
1
6
0
INSERT
2
STK_TOP_6
8
0
10
-4.9999686667
20
0.000022
0
TEXT
8
SYM_TERMINAL
10
0
20
-21.336
40
1.778
1
7
0
INSERT
2
STK_TOP_6
8
0
10
-5.4999686667
20
0.000022
0
TEXT
8
SYM_TERMINAL
10
0
20
-24.384
40
1.778
1
8
0
INSERT
2
STK_TOP_6
8
0
10
-5.9999686667
20
0.000022
0
TEXT
8
SYM_TERMINAL
10
0
20
-27.432
40
1.778
1
9
0
INSERT
2
STK_TOP_6
8
0
10
-6.4999686667
20
0.000022
0
TEXT
8
SYM_TERMINAL
10
0
20
-30.48
40
1.778
1
10
0
INSERT
2
STK_TOP_6
8
0
10
-6.9999686667
20
0.000022
0
TEXT
8
SYM_TERMINAL
10
0
20
-33.528
40
1.778
1
11
0
INSERT
2
STK_TOP_6
8
0
10
-7.4999686667
20
0.000022
0
TEXT
8
SYM_TERMINAL
10
0
20
-36.576
40
1.778
1
12
0
INSERT
2
STK_TOP_6
8
0
10
-7.9999686667
20
0.000022
0
TEXT
8
SYM_TERMINAL
10
0
20
-39.624
40
1.778
1
13
0
INSERT
2
STK_TOP_6
8
0
10
-8.4999686667
20
0.000022
0
TEXT
8
SYM_TERMINAL
10
0
20
-42.672
40
1.778
1
14
0
INSERT
2
STK_TOP_6
8
0
10
-8.9999686667
20
0.000022
0
TEXT
8
SYM_TERMINAL
10
0
20
-45.72
40
1.778
1
15
0
INSERT
2
STK_TOP_6
8
0
10
-9.4999686667
20
0.000022
0
TEXT
8
SYM_TERMINAL
10
0
20
-48.768
40
1.778
1
16
0
INSERT
2
STK_TOP_6
8
0
10
-9.9999686667
20
0.000022
0
TEXT
8
SYM_TERMINAL
10
0
20
-51.816
40
1.778
1
17
0
INSERT
2
STK_TOP_6
8
0
10
-10.4999686667
20
0.000022
0
TEXT
8
SYM_TERMINAL
10
0
20
-54.864
40
1.778
1
18
0
INSERT
2
STK_TOP_6
8
0
10
-10.9999686667
20
0.000022
0
TEXT
8
SYM_TERMINAL
10
0
20
-57.912
40
1.778
1
19
0
INSERT
2
STK_TOP_6
8
0
10
-11.4999686667
20
0.000022
0
TEXT
8
SYM_TERMINAL
10
0
20
-60.96
40
1.778
1
20
0
INSERT
2
STK_TOP_6
8
0
10
-11.9999686667
20
0.000022
0
TEXT
8
SYM_TERMINAL
10
0
20
-64.008
40
1.778
1
21
0
INSERT
2
STK_TOP_6
8
0
10
-12.4999686667
20
0.000022
0
TEXT
8
SYM_TERMINAL
10
0
20
-67.056
40
1.778
1
22
0
INSERT
2
STK_TOP_6
8
0
10
-12.9999686667
20
0.000022
0
TEXT
8
SYM_TERMINAL
10
0
20
-70.104
40
1.778
1
23
0
INSERT
2
STK_TOP_6
8
0
10
-13.4999686667
20
0.000022
0
TEXT
8
SYM_TERMINAL
10
0
20
-73.152
40
1.778
1
24
0
INSERT
2
STK_TOP_6
8
0
10
-13.9999686667
20
0.000022
0
TEXT
8
SYM_TERMINAL
10
0
20
-76.2
40
1.778
1
25
0
INSERT
2
STK_TOP_6
8
0
10
-16.49997
20
0.00002
0
TEXT
8
SYM_TERMINAL
10
0
20
-79.248
40
1.778
1
26
0
INSERT
2
STK_TOP_6
8
0
10
-16.99997
20
0.00002
0
TEXT
8
SYM_TERMINAL
10
0
20
-82.296
40
1.778
1
27
0
INSERT
2
STK_TOP_6
8
0
10
-17.4999686667
20
0.000022
0
TEXT
8
SYM_TERMINAL
10
0
20
-85.344
40
1.778
1
28
0
INSERT
2
STK_TOP_6
8
0
10
-17.9999686667
20
0.000022
0
TEXT
8
SYM_TERMINAL
10
0
20
-88.392
40
1.778
1
29
0
INSERT
2
STK_TOP_6
8
0
10
-18.4999686667
20
0.000022
0
TEXT
8
SYM_TERMINAL
10
0
20
-91.44
40
1.778
1
30
0
INSERT
2
STK_TOP_6
8
0
10
-2.9999686667
20
0.000022
0
TEXT
8
SYM_TERMINAL
10
0
20
-94.488
40
1.778
1
31
0
INSERT
2
STK_TOP_6
8
0
10
-3.4999686667
20
0.000022
0
TEXT
8
SYM_TERMINAL
10
0
20
-97.536
40
1.778
1
32
0
INSERT
2
STK_TOP_6
8
0
10
-3.9999686667
20
0.000022
0
TEXT
8
SYM_TERMINAL
10
0
20
-100.584
40
1.778
1
33
0
INSERT
2
STK_TOP_6
8
0
10
-4.4999686667
20
0.000022
0
TEXT
8
SYM_TERMINAL
10
0
20
-103.632
40
1.778
1
34
0
INSERT
2
STK_TOP_7
8
0
10
-0.25
20
0.25
0
TEXT
8
SYM_TERMINAL
10
0
20
-106.68
40
1.778
1
35
0
INSERT
2
STK_TOP_7
8
0
10
-0.75
20
0.25
0
TEXT
8
SYM_TERMINAL
10
0
20
-109.728
40
1.778
1
36
0
INSERT
2
STK_TOP_7
8
0
10
-1.25
20
0.25
0
TEXT
8
SYM_TERMINAL
10
0
20
-112.776
40
1.778
1
37
0
INSERT
2
STK_TOP_7
8
0
10
-1.75
20
0.25
0
TEXT
8
SYM_TERMINAL
10
0
20
-115.824
40
1.778
1
38
0
INSERT
2
STK_TOP_7
8
0
10
-2.25
20
0.25
0
TEXT
8
SYM_TERMINAL
10
0
20
-118.872
40
1.778
1
39
0
INSERT
2
STK_TOP_7
8
0
10
-2.75
20
0.25
0
TEXT
8
SYM_TERMINAL
10
0
20
-121.92
40
1.778
1
40
0
INSERT
2
STK_TOP_7
8
0
10
-3.25
20
0.25
0
TEXT
8
SYM_TERMINAL
10
0
20
-124.968
40
1.778
1
41
0
INSERT
2
STK_TOP_7
8
0
10
-3.75
20
0.25
0
TEXT
8
SYM_TERMINAL
10
0
20
-128.016
40
1.778
1
42
0
INSERT
2
STK_TOP_7
8
0
10
-4.25
20
0.25
0
TEXT
8
SYM_TERMINAL
10
0
20
-131.064
40
1.778
1
43
0
INSERT
2
STK_TOP_7
8
0
10
-4.75
20
0.25
0
TEXT
8
SYM_TERMINAL
10
0
20
-134.112
40
1.778
1
44
0
INSERT
2
STK_TOP_7
8
0
10
-5.25
20
0.25
0
TEXT
8
SYM_TERMINAL
10
0
20
-137.16
40
1.778
1
45
0
INSERT
2
STK_TOP_7
8
0
10
-5.75
20
0.25
0
TEXT
8
SYM_TERMINAL
10
0
20
-140.208
40
1.778
1
46
0
INSERT
2
STK_TOP_7
8
0
10
-6.25
20
0.25
0
TEXT
8
SYM_TERMINAL
10
0
20
-143.256
40
1.778
1
47
0
INSERT
2
STK_TOP_7
8
0
10
-6.75
20
0.25
0
TEXT
8
SYM_TERMINAL
10
0
20
-146.304
40
1.778
1
48
0
INSERT
2
STK_TOP_7
8
0
10
-7.25
20
0.25
0
TEXT
8
SYM_TERMINAL
10
0
20
-149.352
40
1.778
1
49
0
INSERT
2
STK_TOP_7
8
0
10
-7.75
20
0.25
0
TEXT
8
SYM_TERMINAL
10
0
20
-152.4
40
1.778
1
50
0
INSERT
2
STK_TOP_7
8
0
10
-8.25
20
0.25
0
TEXT
8
SYM_TERMINAL
10
0
20
-155.448
40
1.778
1
51
0
INSERT
2
STK_TOP_7
8
0
10
-8.75
20
0.25
0
TEXT
8
SYM_TERMINAL
10
0
20
-158.496
40
1.778
1
52
0
INSERT
2
STK_TOP_7
8
0
10
-9.25
20
0.25
0
TEXT
8
SYM_TERMINAL
10
0
20
-161.544
40
1.778
1
53
0
INSERT
2
STK_TOP_7
8
0
10
-9.75
20
0.25
0
TEXT
8
SYM_TERMINAL
10
0
20
-164.592
40
1.778
1
54
0
INSERT
2
STK_TOP_7
8
0
10
-10.25
20
0.25
0
TEXT
8
SYM_TERMINAL
10
0
20
-167.64
40
1.778
1
55
0
INSERT
2
STK_TOP_7
8
0
10
-10.75
20
0.25
0
TEXT
8
SYM_TERMINAL
10
0
20
-170.688
40
1.778
1
56
0
INSERT
2
STK_TOP_7
8
0
10
-11.25
20
0.25
0
TEXT
8
SYM_TERMINAL
10
0
20
-173.736
40
1.778
1
57
0
INSERT
2
STK_TOP_7
8
0
10
-11.75
20
0.25
0
TEXT
8
SYM_TERMINAL
10
0
20
-176.784
40
1.778
1
58
0
INSERT
2
STK_TOP_7
8
0
10
-12.25
20
0.25
0
TEXT
8
SYM_TERMINAL
10
0
20
-179.832
40
1.778
1
59
0
INSERT
2
STK_TOP_7
8
0
10
-12.75
20
0.25
0
TEXT
8
SYM_TERMINAL
10
0
20
-182.88
40
1.778
1
60
0
INSERT
2
STK_TOP_7
8
0
10
-13.25
20
0.25
0
TEXT
8
SYM_TERMINAL
10
0
20
-185.928
40
1.778
1
61
0
INSERT
2
STK_TOP_7
8
0
10
-13.75
20
0.25
0
TEXT
8
SYM_TERMINAL
10
0
20
-188.976
40
1.778
1
62
0
INSERT
2
STK_TOP_7
8
0
10
-14.25
20
0.25
0
TEXT
8
SYM_TERMINAL
10
0
20
-192.024
40
1.778
1
63
0
INSERT
2
STK_TOP_7
8
0
10
-16.75
20
0.25
0
TEXT
8
SYM_TERMINAL
10
0
20
-195.072
40
1.778
1
64
0
INSERT
2
STK_TOP_7
8
0
10
-17.25
20
0.25
0
TEXT
8
SYM_TERMINAL
10
0
20
-198.12
40
1.778
1
65
0
INSERT
2
STK_TOP_7
8
0
10
-17.75
20
0.25
0
TEXT
8
SYM_TERMINAL
10
0
20
-201.168
40
1.778
1
66
0
INSERT
2
STK_TOP_7
8
0
10
-18.25
20
0.25
0
TEXT
8
SYM_TERMINAL
10
0
20
-204.216
40
1.778
1
67
0
INSERT
2
STK_TOP_8
8
0
10
-15.37497
20
0.00002
0
TEXT
8
SYM_TERMINAL
10
0
20
-207.264
40
1.778
1
68
0
ENDBLK
0
BLOCK
2
PKG_1
8
0
10
0
20
0
3
PKG_1
70
64
0
TEXT
8
PKG_INFO
10
0
20
0
40
1.778
1
*SYM:= 4
0
TEXT
8
PKG_INFO
10
0
20
-3.048
40
1.778
1
*PKG:= 0 M2_NGFF_MKEY_PLUS UND
0
TEXT
8
PKG_INFO
10
0
20
-6.096
40
1.778
1
*PINNM:=1 3 5 7 9 11 21 23 25 27 29 31 33 35 37 39 41 43 45 47 49 51 53 55 57 67 69 71 73 75 13 15 17 19 2 4 6 8 10 12 14 16 18 20 22 24 26 28 30 32 34 36 38 40 42 44 46 48 50 52 54 56 58 68 70 72 74 59
0
ENDBLK
0
BLOCK
2
SYM_TOP_7
8
0
10
0
20
0
3
SYM_TOP_7
70
64
0
TEXT
8
SYM_NAME
10
0
20
0
40
1.778
1
HOLD3.65
41
0.75
0
TEXT
8
SYM_PART_TYPE_01
10
0
20
0
40
0.889
1
 
73
2
11
0
21
0
41
0.75
7
W0$127R0
0
TEXT
8
SYM_PART_NAME_01
10
0
20
0
40
0.889
1
 
41
0.75
7
W0$127R0
0
INSERT
2
PART_BODY_TOP_11
8
0
10
0
20
0
0
INSERT
2
STK_TOP_27
8
0
10
0
20
0
0
TEXT
8
SYM_TERMINAL
10
0
20
-3.048
40
1.778
1
1
0
ENDBLK
0
BLOCK
2
PKG_2
8
0
10
0
20
0
3
PKG_2
70
64
0
TEXT
8
PKG_INFO
10
0
20
0
40
1.778
1
*SYM:= 5 7
0
TEXT
8
PKG_INFO
10
0
20
-3.048
40
1.778
1
*PKG:= 0 HOLD3.5 UND
0
TEXT
8
PKG_INFO
10
0
20
-6.096
40
1.778
1
*GATE:=0
0
TEXT
8
PKG_INFO
10
0
20
-9.144
40
1.778
1
*GATEPIN:= 0 9 1 <>
0
ENDBLK
0
BLOCK
2
SYM_TOP_6
8
0
10
0
20
0
3
SYM_TOP_6
70
64
0
TEXT
8
SYM_NAME
10
0
20
0
40
1.778
1
DW
41
0.75
0
TEXT
8
SYM_PART_TYPE_01
10
5.0165
20
0.0277813333
40
0.889
1
 
73
2
11
5.0165
21
0.0277813333
41
0.75
7
W0$127R0
0
TEXT
8
SYM_PART_NAME_01
10
3.9365
20
0
40
0.889
1
 
41
0.75
7
W0$127R0
0
INSERT
2
PART_BODY_TOP_7
8
0
10
0
20
0
0
INSERT
2
STK_TOP_10
8
0
10
0
20
0
0
TEXT
8
SYM_TERMINAL
10
0
20
-3.048
40
1.778
1
1
0
ENDBLK
0
BLOCK
2
PKG_3
8
0
10
0
20
0
3
PKG_3
70
64
0
TEXT
8
PKG_INFO
10
0
20
0
40
1.778
1
*SYM:= 6
0
TEXT
8
PKG_INFO
10
0
20
-3.048
40
1.778
1
*PKG:= 4 DW UND
0
ENDBLK
0
BLOCK
2
PART_BODY_TOP_4
8
0
10
0
20
0
3
PART_BODY_TOP_4
70
64
0
POLYLINE
8
PART_TOP_2DLINE_01
66
1
40
0.127
41
0.127
70
1
0
VERTEX
8
PART_TOP_2DLINE_01
10
-21.68
20
-0.15
0
VERTEX
8
PART_TOP_2DLINE_01
10
-21.68
20
-4.825
0
VERTEX
8
PART_TOP_2DLINE_01
10
2.25
20
-4.825
0
VERTEX
8
PART_TOP_2DLINE_01
10
2.25
20
-0.15
0
VERTEX
8
PART_TOP_2DLINE_01
10
0.54
20
-0.15
0
VERTEX
8
PART_TOP_2DLINE_01
10
0.54
20
-0.85
0
VERTEX
8
PART_TOP_2DLINE_01
10
-20.03
20
-0.85
0
VERTEX
8
PART_TOP_2DLINE_01
10
-20.03
20
-0.15
0
SEQEND
0
INSERT
2
SMOOTH_0$127
8
PART_TOP_2DLINE_01
10
-21.68
20
-0.15
0
INSERT
2
SMOOTH_0$127
8
PART_TOP_2DLINE_01
10
-21.68
20
-4.825
0
INSERT
2
SMOOTH_0$127
8
PART_TOP_2DLINE_01
10
2.25
20
-4.825
0
INSERT
2
SMOOTH_0$127
8
PART_TOP_2DLINE_01
10
2.25
20
-0.15
0
INSERT
2
SMOOTH_0$127
8
PART_TOP_2DLINE_01
10
0.54
20
-0.15
0
INSERT
2
SMOOTH_0$127
8
PART_TOP_2DLINE_01
10
0.54
20
-0.85
0
INSERT
2
SMOOTH_0$127
8
PART_TOP_2DLINE_01
10
-20.03
20
-0.85
0
INSERT
2
SMOOTH_0$127
8
PART_TOP_2DLINE_01
10
-20.03
20
-0.15
0
ENDBLK
0
BLOCK
2
STK_TOP_4
8
0
10
0
20
0
3
STK_TOP_4
70
64
0
INSERT
2
DRIL_HOLE_0
8
DRIL_PLTE_THRU_01
10
0
20
0
0
INSERT
2
DRIL_HOLE_0
8
DRIL_PLTE_THRU_02
10
0
20
0
0
INSERT
2
PAD_0
8
PADS_INNER
10
0
20
0
0
INSERT
2
PAD_0
8
PADS_BOT
10
0
20
0
0
INSERT
2
PAD_1
8
PADS_TOP
10
0
20
0
50
90
0
ENDBLK
0
BLOCK
2
STK_TOP_5
8
0
10
0
20
0
3
STK_TOP_5
70
64
0
INSERT
2
DRIL_HOLE_0
8
DRIL_PLTE_THRU_01
10
0
20
0
0
INSERT
2
DRIL_HOLE_0
8
DRIL_PLTE_THRU_02
10
0
20
0
0
INSERT
2
PAD_0
8
PADS_INNER
10
0
20
0
0
INSERT
2
PAD_0
8
PADS_BOT
10
0
20
0
0
INSERT
2
PAD_2
8
PADS_TOP
10
0
20
0
0
ENDBLK
0
BLOCK
2
PART_BODY_TOP_5
8
0
10
0
20
0
3
PART_BODY_TOP_5
70
64
0
POLYLINE
8
PART_TOP_2DLINE_116
66
1
40
0.127
41
0.127
0
VERTEX
8
PART_TOP_2DLINE_116
10
0.449972
20
-0.65404
0
VERTEX
8
PART_TOP_2DLINE_116
10
0.44999
20
-5.3900293333
0
VERTEX
8
PART_TOP_2DLINE_116
10
-0.720998
20
-5.3900306667
0
SEQEND
0
INSERT
2
SMOOTH_0$127
8
PART_TOP_2DLINE_116
10
0.449972
20
-0.65404
0
INSERT
2
SMOOTH_0$127
8
PART_TOP_2DLINE_116
10
0.44999
20
-5.3900293333
0
INSERT
2
SMOOTH_0$127
8
PART_TOP_2DLINE_116
10
-0.720998
20
-5.3900306667
0
POLYLINE
8
PART_TOP_2DLINE_116
66
1
40
0.127
41
0.127
0
VERTEX
8
PART_TOP_2DLINE_116
10
-21.4499986667
20
-0.65404
0
VERTEX
8
PART_TOP_2DLINE_116
10
-21.4499986667
20
-5.3900113333
0
VERTEX
8
PART_TOP_2DLINE_116
10
-20.2490153333
20
-5.3900113333
0
SEQEND
0
INSERT
2
SMOOTH_0$127
8
PART_TOP_2DLINE_116
10
-21.4499986667
20
-0.65404
0
INSERT
2
SMOOTH_0$127
8
PART_TOP_2DLINE_116
10
-21.4499986667
20
-5.3900113333
0
INSERT
2
SMOOTH_0$127
8
PART_TOP_2DLINE_116
10
-20.2490153333
20
-5.3900113333
0
POLYLINE
8
PART_TOP_2DLINE_01
66
1
40
0.0254
41
0.0254
0
VERTEX
8
PART_TOP_2DLINE_01
10
-14.7749686667
20
1.900022
0
VERTEX
8
PART_TOP_2DLINE_01
10
-14.7749686667
20
-0.998978
0
SEQEND
0
INSERT
2
SMOOTH_0$0254
8
PART_TOP_2DLINE_01
10
-14.7749686667
20
1.900022
0
INSERT
2
SMOOTH_0$0254
8
PART_TOP_2DLINE_01
10
-14.7749686667
20
-0.998978
0
POLYLINE
8
PART_TOP_2DLINE_01
66
1
40
0.0254
41
0.0254
0
VERTEX
8
PART_TOP_2DLINE_01
10
-15.9749686667
20
1.900022
0
VERTEX
8
PART_TOP_2DLINE_01
10
-15.9749686667
20
-1.004978
0
SEQEND
0
INSERT
2
SMOOTH_0$0254
8
PART_TOP_2DLINE_01
10
-15.9749686667
20
1.900022
0
INSERT
2
SMOOTH_0$0254
8
PART_TOP_2DLINE_01
10
-15.9749686667
20
-1.004978
0
POLYLINE
8
PART_TOP_2DLINE_01
66
1
40
0.0254
41
0.0254
0
VERTEX
8
PART_TOP_2DLINE_01
10
-15.9749686667
20
1.900022
42
-0.9818399349
0
VERTEX
8
PART_TOP_2DLINE_01
10
-14.7749686667
20
1.900022
0
SEQEND
0
INSERT
2
SMOOTH_0$0254
8
PART_TOP_2DLINE_01
10
-15.9749686667
20
1.900022
0
INSERT
2
SMOOTH_0$0254
8
PART_TOP_2DLINE_01
10
-14.7749686667
20
1.900022
0
ENDBLK
0
BLOCK
2
STK_TOP_6
8
0
10
0
20
0
3
STK_TOP_6
70
64
0
INSERT
2
DRIL_HOLE_0
8
DRIL_PLTE_THRU_01
10
0
20
0
0
INSERT
2
DRIL_HOLE_0
8
DRIL_PLTE_THRU_02
10
0
20
0
0
INSERT
2
PAD_0
8
PADS_INNER
10
0
20
0
0
INSERT
2
PAD_0
8
PADS_BOT
10
0
20
0
0
INSERT
2
PAD_3
8
PADS_TOP
10
0
20
0
50
90
0
ENDBLK
0
BLOCK
2
STK_TOP_7
8
0
10
0
20
0
3
STK_TOP_7
70
64
0
INSERT
2
DRIL_HOLE_0
8
DRIL_PLTE_THRU_01
10
0
20
0
0
INSERT
2
DRIL_HOLE_0
8
DRIL_PLTE_THRU_02
10
0
20
0
0
INSERT
2
PAD_0
8
PADS_INNER
10
0
20
0
0
INSERT
2
PAD_4
8
PADS_BOT
10
0
20
0
50
90
0
INSERT
2
PAD_0
8
PADS_TOP
10
0
20
0
0
ENDBLK
0
BLOCK
2
STK_TOP_8
8
0
10
0
20
0
3
STK_TOP_8
70
64
0
INSERT
2
DRIL_HOLE_0
8
DRIL_PLTE_THRU_01
10
0
20
0
0
INSERT
2
DRIL_HOLE_0
8
DRIL_PLTE_THRU_02
10
0
20
0
0
INSERT
2
PAD_0
8
PADS_INNER
10
0
20
0
0
INSERT
2
PAD_0
8
PADS_BOT
10
0
20
0
0
INSERT
2
PAD_5
8
PADS_TOP
10
0
20
0
50
90
0
ENDBLK
0
BLOCK
2
PART_BODY_TOP_11
8
0
10
0
20
0
3
PART_BODY_TOP_11
70
64
0
ENDBLK
0
BLOCK
2
STK_TOP_27
8
0
10
0
20
0
3
STK_TOP_27
70
64
0
INSERT
2
DRIL_HOLE_3$65
8
DRIL_PLTE_THRU_01
10
0
20
0
0
INSERT
2
DRIL_HOLE_3$65
8
DRIL_PLTE_THRU_02
10
0
20
0
0
INSERT
2
PAD_6
8
PADS_INNER
10
0
20
0
0
INSERT
2
PAD_7
8
PADS_BOT
10
0
20
0
0
INSERT
2
PAD_7
8
PADS_TOP
10
0
20
0
0
ENDBLK
0
BLOCK
2
SYM_TOP_5
8
0
10
0
20
0
3
SYM_TOP_5
70
64
0
TEXT
8
SYM_NAME
10
0
20
0
40
1.778
1
HOLD3.5
41
0.75
0
TEXT
8
SYM_PART_TYPE_01
10
0
20
0
40
0.889
1
 
73
2
11
0
21
0
41
0.75
7
W0$127R0
0
TEXT
8
SYM_PART_NAME_01
10
0
20
0
40
0.889
1
 
41
0.75
7
W0$127R0
0
INSERT
2
PART_BODY_TOP_6
8
0
10
0
20
0
0
INSERT
2
STK_TOP_9
8
0
10
0
20
0
0
TEXT
8
SYM_TERMINAL
10
0
20
-3.048
40
1.778
1
1
0
ENDBLK
0
BLOCK
2
PART_BODY_TOP_7
8
0
10
0
20
0
3
PART_BODY_TOP_7
70
64
0
POLYLINE
8
PART_TOP_COPPER_121
66
1
40
0.254
41
0.254
70
1
0
VERTEX
8
PART_TOP_COPPER_121
10
-1.623
20
0
42
1
0
VERTEX
8
PART_TOP_COPPER_121
10
1.623
20
0
42
1
0
SEQEND
0
POLYLINE
8
PART_TOP_CUTOUT_01
66
1
40
0.154
41
0.154
70
1
0
VERTEX
8
PART_TOP_CUTOUT_01
10
1.977
20
0
42
1
0
VERTEX
8
PART_TOP_CUTOUT_01
10
-1.977
20
0
42
1
0
SEQEND
0
ENDBLK
0
BLOCK
2
STK_TOP_10
8
0
10
0
20
0
3
STK_TOP_10
70
64
0
INSERT
2
DRIL_HOLE_0
8
DRIL_NPLTE_THRU_01
10
0
20
0
0
INSERT
2
DRIL_HOLE_0
8
DRIL_NPLTE_THRU_02
10
0
20
0
0
INSERT
2
PAD_0
8
PADS_INNER
10
0
20
0
0
INSERT
2
PAD_0
8
PADS_BOT
10
0
20
0
0
INSERT
2
PAD_8
8
PADS_TOP
10
0
20
0
0
ENDBLK
0
BLOCK
2
PART_BODY_TOP_6
8
0
10
0
20
0
3
PART_BODY_TOP_6
70
64
0
ENDBLK
0
BLOCK
2
STK_TOP_9
8
0
10
0
20
0
3
STK_TOP_9
70
64
0
INSERT
2
DRIL_HOLE_3$5
8
DRIL_PLTE_THRU_01
10
0
20
0
0
INSERT
2
DRIL_HOLE_3$5
8
DRIL_PLTE_THRU_02
10
0
20
0
0
INSERT
2
PAD_6
8
PADS_INNER
10
0
20
0
0
INSERT
2
PAD_7
8
PADS_BOT
10
0
20
0
0
INSERT
2
PAD_7
8
PADS_TOP
10
0
20
0
0
ENDBLK
999
*** POWERPCB  PCB PARAMETER ***
0
BLOCK
2
PCB_PARAMS
8
0
10
0
20
0
3
PCB_PARAMS
70
64
999
 *  1.Job name           2.Backupfile name       3.CursorType
999
 *  4.TearDropFlag       5.HighlighNetsFlag      6.HatchDisplayFlag
999
 *  7.PadsFlag           8.TracksFlag            9.ViasFlag
999
 * 10.CopperFlag        11.LinesFlag            12.TextFlag
999
 * 13.TopComponentFlag  14.BottomComponentFlag  16.ObjectSnapFlags
0
TEXT
8
PCB_PARAMS
10
0
20
-3.048
40
1.778
1
A:=PCIE2FPC_V1.2.pcb <> 5 0 1 1 1 1 1 1 1 1 1 1 0 502 0
999
 *  1.RefDesHeight       2.RefDesWidth           3.DefaultWidth
999
 *  4.VGX                5.VGY                   6.OVR
999
 *  7.HatchGrid          8.ObjectSnapRadius
0
TEXT
8
PCB_PARAMS
10
0
20
-6.096
40
1.778
1
B:=2.54 0.254 0.0254 0.001 0.001 0.0762 0.0254 0.001
999
 *  1.ScaleFactor        2.NetAttributeFlags     3.BackupInterval
999
 *  4.WorkingLevel       5.HatchMode             6.HatchDirection
999
 *  7.ConnectionColor    8.BackgroundColor       9.ForegroundColor
999
 * 10.BoardOutlineColor
0
TEXT
8
PCB_PARAMS
10
0
20
-9.144
40
1.778
1
C:=18.0070743561 10002 20 1 0 0 0 0 8 8
999
 * MitreAngle0 - MitreAngle6
0
TEXT
8
PCB_PARAMS
10
0
20
-12.192
40
1.778
1
D:=324000000 324000000 324000000 324000000 324000000 324000000 162000000
999
 * Hatch & Keepout Parameters
0
TEXT
8
PCB_PARAMS
10
0
20
-15.24
40
1.778
1
E:=0.5 0 0 2.54 0 1
999
 * Fanout Parameters
0
TEXT
8
PCB_PARAMS
10
0
20
-18.288
40
1.778
1
F:=0.635 0.635 6.35 1 2 0 1 1 0 0 1 1 1 1
999
 * Pad Entry Parameters
0
TEXT
8
PCB_PARAMS
10
0
20
-21.336
40
1.778
1
P:= 1 1 1 1
999
 * DFF Parameters
0
TEXT
8
PCB_PARAMS
10
0
20
-24.384
40
1.778
1
Q:=89.9999 3967 114300 114300 114300 5 4 114300 114300 114300 114300 1 114300 1 114300 1 114300 0
0
ENDBLK
0
BLOCK
2
DRIL_SYMBOL_0
8
0
10
0
20
0
3
DRIL_SYMBOL_0
70
64
0
ENDBLK
0
BLOCK
2
DRIL_SYMBOL_3$65
8
0
10
0
20
0
3
DRIL_SYMBOL_3$65
70
64
0
POLYLINE
8
DRIL_SYMBOL
66
1
40
0.0508
41
0.0508
0
VERTEX
8
DRIL_SYMBOL
10
0
20
-0.254
0
VERTEX
8
DRIL_SYMBOL
10
0
20
0.254
0
SEQEND
0
POLYLINE
8
DRIL_SYMBOL
66
1
40
0.0508
41
0.0508
0
VERTEX
8
DRIL_SYMBOL
10
-0.254
20
0
0
VERTEX
8
DRIL_SYMBOL
10
0.254
20
0
0
SEQEND
0
ENDBLK
0
BLOCK
2
DRIL_SYMBOL_3$5
8
0
10
0
20
0
3
DRIL_SYMBOL_3$5
70
64
0
POLYLINE
8
DRIL_SYMBOL
66
1
40
0.0508
41
0.0508
0
VERTEX
8
DRIL_SYMBOL
10
0
20
-0.254
0
VERTEX
8
DRIL_SYMBOL
10
0
20
0.254
0
SEQEND
0
POLYLINE
8
DRIL_SYMBOL
66
1
40
0.0508
41
0.0508
0
VERTEX
8
DRIL_SYMBOL
10
-0.254
20
0
0
VERTEX
8
DRIL_SYMBOL
10
0.254
20
0
0
SEQEND
0
ENDBLK
999
*** POWERPCB  SMOOTH CIRCLE ***
0
BLOCK
2
SMOOTH_0$0254
8
0
10
0
20
0
3
SMOOTH_0$0254
70
64
0
POLYLINE
8
0
66
1
40
0.0127
41
0.0127
70
1
0
VERTEX
8
0
10
-0.00635
20
0
42
1
0
VERTEX
8
0
10
0.00635
20
0
42
1
0
SEQEND
0
ENDBLK
0
BLOCK
2
SMOOTH_0$127
8
0
10
0
20
0
3
SMOOTH_0$127
70
64
0
POLYLINE
8
0
66
1
40
0.0635
41
0.0635
70
1
0
VERTEX
8
0
10
-0.03175
20
0
42
1
0
VERTEX
8
0
10
0.03175
20
0
42
1
0
SEQEND
0
ENDBLK
0
BLOCK
2
PAD_0
8
0
10
0
20
0
3
PAD_0
70
64
0
POLYLINE
8
0
70
1
66
1
0
VERTEX
8
0
10
0
20
0
42
1
0
VERTEX
8
0
10
0
20
0
42
1
0
SEQEND
0
ENDBLK
0
BLOCK
2
PAD_1
8
0
10
0
20
0
3
PAD_1
70
64
0
POLYLINE
8
0
66
1
40
0.3
41
0.3
0
VERTEX
8
0
10
-0.65
20
0
0
VERTEX
8
0
10
0.65
20
0
0
SEQEND
0
ENDBLK
0
BLOCK
2
PAD_2
8
0
10
0
20
0
3
PAD_2
70
64
0
POLYLINE
8
0
66
1
40
1.4
41
1.4
0
VERTEX
8
0
10
-0.9
20
0
0
VERTEX
8
0
10
0.9
20
0
0
SEQEND
0
ENDBLK
0
BLOCK
2
PAD_3
8
0
10
0
20
0
3
PAD_3
70
64
0
POLYLINE
8
0
66
1
40
0.3
41
0.3
0
VERTEX
8
0
10
-1
20
0
0
VERTEX
8
0
10
1
20
0
0
SEQEND
0
ENDBLK
0
BLOCK
2
PAD_4
8
0
10
0
20
0
3
PAD_4
70
64
0
POLYLINE
8
0
66
1
40
0.3
41
0.3
0
VERTEX
8
0
10
-1.25
20
0
0
VERTEX
8
0
10
1.25
20
0
0
SEQEND
0
ENDBLK
0
BLOCK
2
PAD_5
8
0
10
0
20
0
3
PAD_5
70
64
0
POLYLINE
8
0
66
1
0
VERTEX
8
0
10
0
20
0
0
VERTEX
8
0
10
0
20
0
0
SEQEND
0
ENDBLK
0
BLOCK
2
PAD_6
8
0
10
0
20
0
3
PAD_6
70
64
0
POLYLINE
8
0
70
1
66
1
40
2
41
2
0
VERTEX
8
0
10
0
20
-1
42
1
0
VERTEX
8
0
10
0
20
1
42
1
0
SEQEND
0
ENDBLK
0
BLOCK
2
PAD_7
8
0
10
0
20
0
3
PAD_7
70
64
0
POLYLINE
8
0
70
1
66
1
40
3
41
3
0
VERTEX
8
0
10
0
20
-1.5
42
1
0
VERTEX
8
0
10
0
20
1.5
42
1
0
SEQEND
0
ENDBLK
0
BLOCK
2
PAD_8
8
0
10
0
20
0
3
PAD_8
70
64
0
POLYLINE
8
0
70
1
66
1
40
0.5
41
0.5
0
VERTEX
8
0
10
0
20
-0.25
42
1
0
VERTEX
8
0
10
0
20
0.25
42
1
0
SEQEND
0
ENDBLK
999
*** POWERPCB  DRILL HOLE ***
0
BLOCK
2
DRIL_HOLE_0
8
0
10
0
20
0
3
DRIL_HOLE_0
70
64
0
POLYLINE
8
0
66
1
70
1
0
VERTEX
8
0
10
0
20
0
42
1
0
VERTEX
8
0
10
0
20
0
42
1
0
SEQEND
0
INSERT
2
DRIL_SYMBOL_0
8
0
10
0
20
0
0
ENDBLK
0
BLOCK
2
DRIL_HOLE_3$65
8
0
10
0
20
0
3
DRIL_HOLE_3$65
70
64
0
POLYLINE
8
0
66
1
40
1.825
41
1.825
70
1
0
VERTEX
8
0
10
-0.9125
20
0
42
1
0
VERTEX
8
0
10
0.9125
20
0
42
1
0
SEQEND
0
INSERT
2
DRIL_SYMBOL_3$65
8
0
10
0
20
0
0
ENDBLK
0
BLOCK
2
DRIL_HOLE_3$5
8
0
10
0
20
0
3
DRIL_HOLE_3$5
70
64
0
POLYLINE
8
0
66
1
40
1.75
41
1.75
70
1
0
VERTEX
8
0
10
-0.875
20
0
42
1
0
VERTEX
8
0
10
0.875
20
0
42
1
0
SEQEND
0
INSERT
2
DRIL_SYMBOL_3$5
8
0
10
0
20
0
0
ENDBLK
0
ENDSEC
0
SECTION
2
ENTITIES
999
*** POWERPCB  DBLAYER ***
0
INSERT
2
DBLAYERS
8
0
10
0
20
0
999
*** POWERPCB  BOARD ***
0
INSERT
2
BOARD_1
8
0
10
22.679788
20
-4.349538
999
*** POWERPCB  2DLINE ***
999
*** POWERPCB  FREE TEXT ***
0
TEXT
8
TEXT_126
10
27.98
20
-0.856
40
1.05
1
PCIE2FPC
41
0.75
7
W0$1
0
TEXT
8
TEXT_126
10
34.895
20
-0.666
40
0.7
1
20190409_V1.4
41
0.75
7
W0$1
999
*** POWERPCB  COMPONENT ***
0
INSERT
2
PART_TOP_0
8
0
10
18.252
20
1.733
50
180
0
INSERT
2
PART_TOP_1
8
0
10
41.854756
20
-3.325664
0
INSERT
2
PART_TOP_2
8
0
10
3.514
20
4.635
0
INSERT
2
PART_TOP_3
8
0
10
52.514
20
4.635
0
INSERT
2
PART_TOP_4
8
0
10
47.369
20
3.504
50
180
0
INSERT
2
PART_TOP_5
8
0
10
9.82
20
3.579
50
180
999
*** POWERPCB  PCB PARAMETER ***
0
INSERT
2
PCB_PARAMS
8
0
10
0
20
0
0
ENDSEC
0
EOF
