0
SECTION
2
HEADER
999
*** POWERPCB  HEADER ***
9
$EXTMIN
10
-98.3662246667
20
-7.1862013333
9
$EXTMAX
10
3.386496
20
94.5642
9
$FILLMODE
70
0
9
$GRIDMODE
70
1
9
$GRIDUNIT
10
0.15
20
0.15
9
$INSBASE
10
153.56
20
127.85
9
$LIMCHECK
70
0
9
$PLINEWID
40
0.01
9
$SNAPMODE
70
1
9
$SNAPUNIT
10
0.075
20
0.075
9
$TEXTSIZE
40
2.54
9
$TEXTSTYLE
7
W0$254
9
$USERI1
70
101
9
$USERI2
70
1
9
$USERI5
70
150
9
$VIEWCTR
10
-41.6774093333
20
43.483422
0
ENDSEC
0
SECTION
2
TABLES
999
*** POWERPCB  LTYPE ***
0
TABLE
2
LTYPE
70
4
0
LTYPE
2
CONTINUOUS
70
64
3
---
72
65
73
0
40
0
0
LTYPE
2
TRMIDX_1
70
64
3
---
72
65
73
2
40
2
49
1
49
1
0
LTYPE
2
TRMIDX_0
70
64
3
---
72
65
73
2
40
2
49
1
49
1
0
LTYPE
2
TRMIDX_4
70
64
3
---
72
65
73
2
40
2
49
1
49
1
0
LTYPE
2
KEEPOUT_00001000$0
70
64
3
---
72
65
73
2
40
2
49
1
49
1
0
ENDTAB
999
*** POWERPCB  LAYER ***
0
TABLE
2
LAYER
70
59
0
LAYER
2
DBLAYERS
70
1
62
-1
6
CONTINUOUS
0
LAYER
2
BOARD_OUTLINE_00
70
0
62
1
6
CONTINUOUS
0
LAYER
2
LABEL_INFO
70
1
62
-1
6
CONTINUOUS
0
LAYER
2
LABEL_ATTRIBUTE
70
1
62
-1
6
CONTINUOUS
0
LAYER
2
ATTRIBUTE_04
70
1
62
-183
6
CONTINUOUS
0
LAYER
2
PART_NAME_04
70
0
62
6
6
CONTINUOUS
0
LAYER
2
PART_TYPE_BOT
70
1
62
-250
6
CONTINUOUS
0
LAYER
2
PART_INFO
70
1
62
-1
6
CONTINUOUS
0
LAYER
2
PART_PTS
70
1
62
-1
6
CONTINUOUS
0
LAYER
2
PART_NAME_129
70
0
62
146
6
CONTINUOUS
0
LAYER
2
ATTRIBUTE_129
70
1
62
-146
6
CONTINUOUS
0
LAYER
2
ATTRIBUTE_109
70
1
62
-250
6
CONTINUOUS
0
LAYER
2
PART_NAME_109
70
1
62
-250
6
CONTINUOUS
0
LAYER
2
PART_TYPE_04
70
1
62
-250
6
CONTINUOUS
0
LAYER
2
PART_NAME_BOT
70
1
62
-250
6
CONTINUOUS
0
LAYER
2
PART_TYPE_129
70
1
62
-250
6
CONTINUOUS
0
LAYER
2
SYM_NAME
70
1
62
-1
6
CONTINUOUS
0
LAYER
2
SYM_PART_NAME_01
70
1
62
-1
6
CONTINUOUS
0
LAYER
2
SYM_ATTRIBUTE_01
70
1
62
-1
6
CONTINUOUS
0
LAYER
2
SYM_TERMINAL
70
1
62
-1
6
CONTINUOUS
0
LAYER
2
PKG_INFO
70
1
62
-1
6
CONTINUOUS
0
LAYER
2
SYM_ATTRIBUTE_126
70
1
62
-1
6
CONTINUOUS
0
LAYER
2
SYM_PART_NAME_126
70
1
62
-1
6
CONTINUOUS
0
LAYER
2
SYM_PART_NAME_109
70
1
62
-1
6
CONTINUOUS
0
LAYER
2
SYM_ATTRIBUTE_109
70
1
62
-1
6
CONTINUOUS
0
LAYER
2
SYM_PART_TYPE_01
70
1
62
-1
6
CONTINUOUS
0
LAYER
2
SYM_PART_TYPE_126
70
1
62
-1
6
CONTINUOUS
0
LAYER
2
PART_BOT_2DLINE_00
70
0
62
2
6
CONTINUOUS
0
LAYER
2
DRIL_PLTE_THRU_01
70
0
62
34
6
CONTINUOUS
0
LAYER
2
DRIL_PLTE_THRU_02
70
0
62
4
6
CONTINUOUS
0
LAYER
2
DRIL_PLTE_THRU_03
70
0
62
6
6
CONTINUOUS
0
LAYER
2
DRIL_PLTE_THRU_04
70
0
62
186
6
CONTINUOUS
0
LAYER
2
PADS_INNER
70
0
62
43
6
CONTINUOUS
0
LAYER
2
PADS_BOT
70
0
62
150
6
CONTINUOUS
0
LAYER
2
PADS_TOP
70
0
62
43
6
CONTINUOUS
0
LAYER
2
PART_BOT_2DLINE_01
70
1
62
-250
6
CONTINUOUS
0
LAYER
2
PART_BOT_2DLINE_126
70
0
62
255
6
CONTINUOUS
0
LAYER
2
PART_BOT_2DLINE_127
70
0
62
255
6
CONTINUOUS
0
LAYER
2
PART_BOT_COPPER_01
70
1
62
-250
6
CONTINUOUS
0
LAYER
2
DRIL_NPLTE_THRU_01
70
0
62
34
6
CONTINUOUS
0
LAYER
2
DRIL_NPLTE_THRU_02
70
0
62
4
6
CONTINUOUS
0
LAYER
2
DRIL_NPLTE_THRU_03
70
0
62
6
6
CONTINUOUS
0
LAYER
2
DRIL_NPLTE_THRU_04
70
0
62
186
6
CONTINUOUS
0
LAYER
2
PADS_XR_123
70
1
62
-250
6
CONTINUOUS
0
LAYER
2
PADS_XR_121
70
1
62
-250
6
CONTINUOUS
0
LAYER
2
KEEPOUT_01
70
1
62
-130
6
CONTINUOUS
0
LAYER
2
PART_BOT_2DLINE_120
70
0
62
2
6
CONTINUOUS
0
LAYER
2
PADS_XR_128
70
1
62
-250
6
CONTINUOUS
0
LAYER
2
PADS_XR_122
70
1
62
-250
6
CONTINUOUS
0
LAYER
2
PART_BOT_2DLINE_116
70
1
62
-250
6
CONTINUOUS
0
LAYER
2
PART_BOT_2DLINE_118
70
1
62
-250
6
CONTINUOUS
0
LAYER
2
PART_BOT_COPPER_121
70
1
62
-250
6
CONTINUOUS
0
LAYER
2
PART_BOT_CUTOUT_01
70
1
62
-250
6
CONTINUOUS
0
LAYER
2
PART_TOP_2DLINE_00
70
0
62
255
6
CONTINUOUS
0
LAYER
2
PART_TOP_2DLINE_119
70
1
62
-250
6
CONTINUOUS
0
LAYER
2
PART_TOP_2DLINE_01
70
0
62
255
6
CONTINUOUS
0
LAYER
2
PART_TOP_2DLINE_120
70
0
62
6
6
CONTINUOUS
0
LAYER
2
PCB_PARAMS
70
1
62
-1
6
CONTINUOUS
0
LAYER
2
DRIL_SYMBOL
70
0
62
1
6
CONTINUOUS
0
ENDTAB
999
*** POWERPCB  TEXT STYLE ***
0
TABLE
2
STYLE
70
11
0
STYLE
2
W0$127
70
64
40
0
41
0.75
42
0
50
0
71
0
3
simplex
0
STYLE
2
W0$04
70
64
40
0
41
0.75
42
0
50
0
71
0
3
simplex
0
STYLE
2
W0$0381
70
64
40
0
41
0.75
42
0
50
0
71
0
3
simplex
0
STYLE
2
W0$05127
70
64
40
0
41
0.75
42
0
50
0
71
0
3
simplex
0
STYLE
2
W0$254
70
64
40
0
41
0.75
42
0
50
0
71
0
3
simplex
0
STYLE
2
W0$04127
70
64
40
0
41
0.75
42
0
50
0
71
0
3
simplex
0
STYLE
2
W0$04R0
70
64
40
0
41
0.75
42
0
50
0
71
0
3
simplex
0
STYLE
2
W0$127R0
70
64
40
0
41
0.75
42
0
50
0
71
0
3
simplex
0
STYLE
2
W0$0381R0
70
64
40
0
41
0.75
42
0
50
0
71
0
3
simplex
0
STYLE
2
W0$254R0
70
64
40
0
41
0.75
42
0
50
0
71
0
3
simplex
0
STYLE
2
W0$127R1
70
64
40
0
41
0.75
42
0
50
0
71
0
3
simplex
0
ENDTAB
0
ENDSEC
0
SECTION
2
BLOCKS
999
*** POWERPCB  DBLAYER ***
0
BLOCK
2
DBLAYERS
8
0
10
0
20
0
3
DBLAYERS
70
64
0
TEXT
8
DBLAYERS
10
0
20
-3.048
40
1.778
1
__It__Is__Job__Name__:=[vc099]Y10_V1.0_20190909.pcb
999
 *  1.Number             2.Type                  3.RouteColor
999
 *  4.ViaColor           5.PadColor              6.CopperColor
999
 *  7.2DLineColor        8.TextColor             9.ErrorColor
999
 * 10.TopComponentColor 11.BottomComponentColor 12.RoutingDirection
999
 * 13.LayerThickness    14.CopperThickness      15.Dielectric
999
 * 16.IsRouteable       17.IsVisible            18.IsSelectable
999
 * 19.IsPrepreg         20.AssSilkScreen        21.AssPasteMask
999
 * 22.AssSolderMask     23.AssAssembly
0
TEXT
8
DBLAYERS
10
0
20
-6.096
40
1.778
1
Bottom:=4 1 9 9 25 9 9 9 11 0 14 1 0 51435 3.2999999523 1 1 1 0 129 122 128 130 0 0 1 13 0 29 26 
0
TEXT
8
DBLAYERS
10
0
20
-9.144
40
1.778
1
Silkscreen Bottom:=129 3 0 0 0 19 19 19 0 0 19 2 0 0 3.2999999523 0 1 1 0 -1 -1 -1 -1 0 0 0 19 0 19 19 
0
ENDBLK
999
*** POWERPCB  BOARD ***
0
BLOCK
2
BOARD_88
8
0
10
0
20
0
3
BOARD_88
70
64
0
POLYLINE
8
BOARD_OUTLINE_00
66
1
40
0.1524
41
0.1524
70
1
0
VERTEX
8
BOARD_OUTLINE_00
10
0
20
-4
42
-0.4142135624
0
VERTEX
8
BOARD_OUTLINE_00
10
4
20
0.028
0
VERTEX
8
BOARD_OUTLINE_00
10
85.717
20
0.028
0
VERTEX
8
BOARD_OUTLINE_00
10
85.717
20
-2.3342
0
VERTEX
8
BOARD_OUTLINE_00
10
92.4226
20
-2.3342
0
VERTEX
8
BOARD_OUTLINE_00
10
92.4226
20
0
0
VERTEX
8
BOARD_OUTLINE_00
10
97.6
20
0
42
-0.4213885378
0
VERTEX
8
BOARD_OUTLINE_00
10
101.6
20
-4
0
VERTEX
8
BOARD_OUTLINE_00
10
101.6
20
-84.37
0
VERTEX
8
BOARD_OUTLINE_00
10
100
20
-84.37
42
0.3133810041
0
VERTEX
8
BOARD_OUTLINE_00
10
98.8
20
-85.57
0
VERTEX
8
BOARD_OUTLINE_00
10
98.8
20
-85.97
42
0.3119440422
0
VERTEX
8
BOARD_OUTLINE_00
10
100
20
-87.17
0
VERTEX
8
BOARD_OUTLINE_00
10
101.59
20
-87.17
0
VERTEX
8
BOARD_OUTLINE_00
10
101.6
20
-97.57
42
-0.4147248499
0
VERTEX
8
BOARD_OUTLINE_00
10
97.6
20
-101.57
0
VERTEX
8
BOARD_OUTLINE_00
10
4
20
-101.57
42
-0.4137024596
0
VERTEX
8
BOARD_OUTLINE_00
10
0
20
-97.57
0
VERTEX
8
BOARD_OUTLINE_00
10
0
20
-87.16
0
VERTEX
8
BOARD_OUTLINE_00
10
1.8
20
-87.16
42
0.2702888617
0
VERTEX
8
BOARD_OUTLINE_00
10
2.8
20
-86.16
0
VERTEX
8
BOARD_OUTLINE_00
10
2.8
20
-85.62
42
0.3443276133
0
VERTEX
8
BOARD_OUTLINE_00
10
1.55
20
-84.37
0
VERTEX
8
BOARD_OUTLINE_00
10
0
20
-84.37
0
SEQEND
0
INSERT
2
SMOOTH_0$1524
8
BOARD_OUTLINE_00
10
0
20
-4
0
INSERT
2
SMOOTH_0$1524
8
BOARD_OUTLINE_00
10
4
20
0.028
0
ENDBLK
999
*** POWERPCB  COMPONENT ***
0
BLOCK
2
PART_BOT_0
8
0
10
0
20
0
3
PART_BOT_0
70
64
0
INSERT
2
SYM_BOT_4
8
0
10
0
20
0
0
INSERT
2
PKG_1
8
0
10
0
20
0
41
-1
0
TEXT
8
LABEL_INFO
10
1.3235006667
20
1.1685286667
40
0.889
1
0 0 1 1 0 1
72
1
73
1
11
1.3235006667
21
1.1685286667
41
0.75
7
W0$127
0
TEXT
8
LABEL_ATTRIBUTE
10
1.3235006667
20
1.1685286667
40
0.889
1
Comment
72
1
73
1
11
1.3235006667
21
1.1685286667
41
0.75
7
W0$127
0
TEXT
8
ATTRIBUTE_04
10
1.3235006667
20
1.1685286667
40
0.889
1
 
72
1
73
2
11
1.3235006667
21
1.1685286667
41
0.75
7
W0$127
0
TEXT
8
LABEL_INFO
10
0.51
20
0.08
40
0.56
1
0 0 1 1 0 1
72
1
73
1
11
0.51
21
0.08
41
0.75
7
W0$04
0
TEXT
8
LABEL_ATTRIBUTE
10
0.51
20
0.08
40
0.56
1
Ref.Des.
72
1
73
1
11
0.51
21
0.08
41
0.75
7
W0$04
0
TEXT
8
PART_NAME_04
10
0.51
20
0.08
40
0.56
1
C90301
72
1
73
2
11
0.51
21
0.08
41
0.75
7
W0$04
0
TEXT
8
PART_TYPE_BOT
10
0.51
20
-0.72
40
0.56
1
C0402
72
1
73
2
11
0.51
21
-0.72
41
0.75
7
W0$04
0
TEXT
8
PART_INFO
10
0.51
20
-1.52
40
0.56
1
000000
71
2
72
1
73
2
11
0.51
21
-1.52
41
0.75
7
W0$04
0
TEXT
8
PART_PTS
10
0.51
20
-2.32
40
0.56
1
1 2 
71
2
72
1
73
2
11
0.51
21
-2.32
41
0.75
7
W0$04
0
ENDBLK
0
BLOCK
2
PART_BOT_2
8
0
10
0
20
0
3
PART_BOT_2
70
64
0
INSERT
2
SYM_BOT_4
8
0
10
0
20
0
0
INSERT
2
PKG_1
8
0
10
0
20
0
41
-1
0
TEXT
8
LABEL_INFO
10
0
20
0
40
0.56
1
0 0 1 1 0 1
72
1
73
1
11
0
21
0
41
0.75
7
W0$127
0
TEXT
8
LABEL_ATTRIBUTE
10
0
20
0
40
0.56
1
Value
72
1
73
1
11
0
21
0
41
0.75
7
W0$127
0
TEXT
8
ATTRIBUTE_04
10
0
20
0
40
0.56
1
4.7UF
72
1
73
2
11
0
21
0
41
0.75
7
W0$127
0
TEXT
8
LABEL_INFO
10
-0.0353333333
20
0.0363333333
40
0.56
1
0 0 1 1 0 1
72
1
73
1
11
-0.0353333333
21
0.0363333333
41
0.75
7
W0$0381
0
TEXT
8
LABEL_ATTRIBUTE
10
-0.0353333333
20
0.0363333333
40
0.56
1
Ref.Des.
72
1
73
1
11
-0.0353333333
21
0.0363333333
41
0.75
7
W0$0381
0
TEXT
8
PART_NAME_04
10
-0.0353333333
20
0.0363333333
40
0.56
1
C70
72
1
73
2
11
-0.0353333333
21
0.0363333333
41
0.75
7
W0$0381
0
TEXT
8
LABEL_INFO
10
1.3235006667
20
1.1685286667
40
0.889
1
0 0 1 1 0 1
72
1
73
1
11
1.3235006667
21
1.1685286667
41
0.75
7
W0$127
0
TEXT
8
LABEL_ATTRIBUTE
10
1.3235006667
20
1.1685286667
40
0.889
1
Comment
72
1
73
1
11
1.3235006667
21
1.1685286667
41
0.75
7
W0$127
0
TEXT
8
ATTRIBUTE_04
10
1.3235006667
20
1.1685286667
40
0.889
1
 
72
1
73
2
11
1.3235006667
21
1.1685286667
41
0.75
7
W0$127
0
TEXT
8
PART_TYPE_BOT
10
1.3235006667
20
-0.1014713333
40
0.889
1
C0402
72
1
73
2
11
1.3235006667
21
-0.1014713333
41
0.75
7
W0$127
0
TEXT
8
PART_INFO
10
1.3235006667
20
-1.3714713333
40
0.889
1
000000
71
2
72
1
73
2
11
1.3235006667
21
-1.3714713333
41
0.75
7
W0$127
0
TEXT
8
PART_PTS
10
1.3235006667
20
-2.6414713333
40
0.889
1
1 2 
71
2
72
1
73
2
11
1.3235006667
21
-2.6414713333
41
0.75
7
W0$127
0
ENDBLK
0
BLOCK
2
PART_BOT_4
8
0
10
0
20
0
3
PART_BOT_4
70
64
0
INSERT
2
SYM_BOT_19
8
0
10
0
20
0
0
INSERT
2
PKG_12
8
0
10
0
20
0
41
-1
0
TEXT
8
LABEL_INFO
10
-0.963498
20
0.6666986667
40
0.889
1
0 0 0 0 0 1
41
0.75
7
W0$127
0
TEXT
8
LABEL_ATTRIBUTE
10
-0.963498
20
0.6666986667
40
0.889
1
Comment
41
0.75
7
W0$127
0
TEXT
8
ATTRIBUTE_04
10
-0.963498
20
0.6666986667
40
0.889
1
 
41
0.75
7
W0$127
0
TEXT
8
LABEL_INFO
10
-0.635
20
-0.245
40
0.56
1
0 0 0 0 0 1
41
0.75
7
W0$04
0
TEXT
8
LABEL_ATTRIBUTE
10
-0.635
20
-0.245
40
0.56
1
Ref.Des.
41
0.75
7
W0$04
0
TEXT
8
PART_NAME_04
10
-0.635
20
-0.245
40
0.56
1
R123
41
0.75
7
W0$04
0
TEXT
8
PART_TYPE_BOT
10
-0.635
20
-1.045
40
0.56
1
R0402
41
0.75
7
W0$04
0
TEXT
8
PART_INFO
10
-0.635
20
-1.845
40
0.56
1
000000
71
2
41
0.75
7
W0$04
0
TEXT
8
PART_PTS
10
-0.635
20
-2.645
40
0.56
1
1 2 
71
2
41
0.75
7
W0$04
0
ENDBLK
0
BLOCK
2
PART_BOT_5
8
0
10
0
20
0
3
PART_BOT_5
70
64
0
INSERT
2
SYM_BOT_4
8
0
10
0
20
0
0
INSERT
2
PKG_1
8
0
10
0
20
0
41
-1
0
TEXT
8
LABEL_INFO
10
1.3235006667
20
1.1685286667
40
0.889
1
0 0 1 1 0 1
72
1
73
1
11
1.3235006667
21
1.1685286667
41
0.75
7
W0$127
0
TEXT
8
LABEL_ATTRIBUTE
10
1.3235006667
20
1.1685286667
40
0.889
1
Comment
72
1
73
1
11
1.3235006667
21
1.1685286667
41
0.75
7
W0$127
0
TEXT
8
ATTRIBUTE_04
10
1.3235006667
20
1.1685286667
40
0.889
1
 
72
1
73
2
11
1.3235006667
21
1.1685286667
41
0.75
7
W0$127
0
TEXT
8
LABEL_INFO
10
-0.0353333333
20
0.0363333333
40
0.56
1
0 0 1 1 0 1
72
1
73
1
11
-0.0353333333
21
0.0363333333
41
0.75
7
W0$04
0
TEXT
8
LABEL_ATTRIBUTE
10
-0.0353333333
20
0.0363333333
40
0.56
1
Ref.Des.
72
1
73
1
11
-0.0353333333
21
0.0363333333
41
0.75
7
W0$04
0
TEXT
8
PART_NAME_04
10
-0.0353333333
20
0.0363333333
40
0.56
1
C90299
72
1
73
2
11
-0.0353333333
21
0.0363333333
41
0.75
7
W0$04
0
TEXT
8
PART_TYPE_BOT
10
-0.0353333333
20
-0.7636666667
40
0.56
1
C0402
72
1
73
2
11
-0.0353333333
21
-0.7636666667
41
0.75
7
W0$04
0
TEXT
8
PART_INFO
10
-0.0353333333
20
-1.5636666667
40
0.56
1
000000
71
2
72
1
73
2
11
-0.0353333333
21
-1.5636666667
41
0.75
7
W0$04
0
TEXT
8
PART_PTS
10
-0.0353333333
20
-2.3636666667
40
0.56
1
1 2 
71
2
72
1
73
2
11
-0.0353333333
21
-2.3636666667
41
0.75
7
W0$04
0
ENDBLK
0
BLOCK
2
PART_BOT_8
8
0
10
0
20
0
3
PART_BOT_8
70
64
0
INSERT
2
SYM_BOT_19
8
0
10
0
20
0
0
INSERT
2
PKG_12
8
0
10
0
20
0
41
-1
0
TEXT
8
LABEL_INFO
10
0
20
0
40
0.56
1
0 0 1 1 0 1
72
1
73
1
11
0
21
0
41
0.75
7
W0$127
0
TEXT
8
LABEL_ATTRIBUTE
10
0
20
0
40
0.56
1
Value
72
1
73
1
11
0
21
0
41
0.75
7
W0$127
0
TEXT
8
ATTRIBUTE_04
10
0
20
0
40
0.56
1
10K
72
1
73
2
11
0
21
0
41
0.75
7
W0$127
0
TEXT
8
LABEL_INFO
10
-0.598
20
-0.155
40
0.56
1
0 0 0 0 0 1
41
0.75
7
W0$0381
0
TEXT
8
LABEL_ATTRIBUTE
10
-0.598
20
-0.155
40
0.56
1
Ref.Des.
41
0.75
7
W0$0381
0
TEXT
8
PART_NAME_04
10
-0.598
20
-0.155
40
0.56
1
R47
41
0.75
7
W0$0381
0
TEXT
8
LABEL_INFO
10
-0.963498
20
0.6666986667
40
0.889
1
0 0 0 0 0 1
41
0.75
7
W0$127
0
TEXT
8
LABEL_ATTRIBUTE
10
-0.963498
20
0.6666986667
40
0.889
1
Comment
41
0.75
7
W0$127
0
TEXT
8
ATTRIBUTE_04
10
-0.963498
20
0.6666986667
40
0.889
1
 
41
0.75
7
W0$127
0
TEXT
8
PART_TYPE_BOT
10
-0.963498
20
-0.6033013333
40
0.889
1
R0402
41
0.75
7
W0$127
0
TEXT
8
PART_INFO
10
-0.963498
20
-1.8733013333
40
0.889
1
000000
71
2
41
0.75
7
W0$127
0
TEXT
8
PART_PTS
10
-0.963498
20
-3.1433013333
40
0.889
1
1 2 
71
2
41
0.75
7
W0$127
0
ENDBLK
0
BLOCK
2
PART_BOT_10
8
0
10
0
20
0
3
PART_BOT_10
70
64
0
INSERT
2
SYM_BOT_4
8
0
10
0
20
0
0
INSERT
2
PKG_1
8
0
10
0
20
0
41
-1
0
TEXT
8
LABEL_INFO
10
1.3235006667
20
1.1685286667
40
0.889
1
0 0 1 1 0 1
72
1
73
1
11
1.3235006667
21
1.1685286667
41
0.75
7
W0$127
0
TEXT
8
LABEL_ATTRIBUTE
10
1.3235006667
20
1.1685286667
40
0.889
1
Comment
72
1
73
1
11
1.3235006667
21
1.1685286667
41
0.75
7
W0$127
0
TEXT
8
ATTRIBUTE_04
10
1.3235006667
20
1.1685286667
40
0.889
1
 
72
1
73
2
11
1.3235006667
21
1.1685286667
41
0.75
7
W0$127
0
TEXT
8
LABEL_INFO
10
-0.0353333333
20
0.0363333333
40
0.56
1
0 0 1 1 0 1
72
1
73
1
11
-0.0353333333
21
0.0363333333
41
0.75
7
W0$04
0
TEXT
8
LABEL_ATTRIBUTE
10
-0.0353333333
20
0.0363333333
40
0.56
1
Ref.Des.
72
1
73
1
11
-0.0353333333
21
0.0363333333
41
0.75
7
W0$04
0
TEXT
8
PART_NAME_04
10
-0.0353333333
20
0.0363333333
40
0.56
1
C90300
72
1
73
2
11
-0.0353333333
21
0.0363333333
41
0.75
7
W0$04
0
TEXT
8
PART_TYPE_BOT
10
-0.0353333333
20
-0.7636666667
40
0.56
1
C0402
72
1
73
2
11
-0.0353333333
21
-0.7636666667
41
0.75
7
W0$04
0
TEXT
8
PART_INFO
10
-0.0353333333
20
-1.5636666667
40
0.56
1
000000
71
2
72
1
73
2
11
-0.0353333333
21
-1.5636666667
41
0.75
7
W0$04
0
TEXT
8
PART_PTS
10
-0.0353333333
20
-2.3636666667
40
0.56
1
1 2 
71
2
72
1
73
2
11
-0.0353333333
21
-2.3636666667
41
0.75
7
W0$04
0
ENDBLK
0
BLOCK
2
PART_BOT_12
8
0
10
0
20
0
3
PART_BOT_12
70
64
0
INSERT
2
SYM_BOT_19
8
0
10
0
20
0
0
INSERT
2
PKG_12
8
0
10
0
20
0
41
-1
0
TEXT
8
LABEL_INFO
10
0
20
0
40
0.56
1
0 0 1 1 0 1
72
1
73
1
11
0
21
0
41
0.75
7
W0$127
0
TEXT
8
LABEL_ATTRIBUTE
10
0
20
0
40
0.56
1
Value
72
1
73
1
11
0
21
0
41
0.75
7
W0$127
0
TEXT
8
ATTRIBUTE_04
10
0
20
0
40
0.56
1
10K
72
1
73
2
11
0
21
0
41
0.75
7
W0$127
0
TEXT
8
LABEL_INFO
10
-0.598
20
-0.155
40
0.56
1
0 0 0 0 0 1
41
0.75
7
W0$0381
0
TEXT
8
LABEL_ATTRIBUTE
10
-0.598
20
-0.155
40
0.56
1
Ref.Des.
41
0.75
7
W0$0381
0
TEXT
8
PART_NAME_04
10
-0.598
20
-0.155
40
0.56
1
R64
41
0.75
7
W0$0381
0
TEXT
8
LABEL_INFO
10
-0.963498
20
0.6666986667
40
0.889
1
0 0 0 0 0 1
41
0.75
7
W0$127
0
TEXT
8
LABEL_ATTRIBUTE
10
-0.963498
20
0.6666986667
40
0.889
1
Comment
41
0.75
7
W0$127
0
TEXT
8
ATTRIBUTE_04
10
-0.963498
20
0.6666986667
40
0.889
1
 
41
0.75
7
W0$127
0
TEXT
8
PART_TYPE_BOT
10
-0.963498
20
-0.6033013333
40
0.889
1
R0402
41
0.75
7
W0$127
0
TEXT
8
PART_INFO
10
-0.963498
20
-1.8733013333
40
0.889
1
000000
71
2
41
0.75
7
W0$127
0
TEXT
8
PART_PTS
10
-0.963498
20
-3.1433013333
40
0.889
1
1 2 
71
2
41
0.75
7
W0$127
0
ENDBLK
0
BLOCK
2
PART_BOT_17
8
0
10
0
20
0
3
PART_BOT_17
70
64
0
INSERT
2
SYM_BOT_4
8
0
10
0
20
0
0
INSERT
2
PKG_1
8
0
10
0
20
0
41
-1
0
TEXT
8
LABEL_INFO
10
0
20
0
40
0.56
1
0 0 1 1 0 1
72
1
73
1
11
0
21
0
41
0.75
7
W0$127
0
TEXT
8
LABEL_ATTRIBUTE
10
0
20
0
40
0.56
1
Value
72
1
73
1
11
0
21
0
41
0.75
7
W0$127
0
TEXT
8
ATTRIBUTE_04
10
0
20
0
40
0.56
1
100NF
72
1
73
2
11
0
21
0
41
0.75
7
W0$127
0
TEXT
8
LABEL_INFO
10
-0.0063493333
20
-0.0254
40
0.56
1
0 324000000 1 1 0 1
72
1
73
1
11
-0.0063493333
21
-0.0254
50
180
41
0.75
7
W0$0381
0
TEXT
8
LABEL_ATTRIBUTE
10
-0.0063493333
20
-0.0254
40
0.56
1
Ref.Des.
72
1
73
1
11
-0.0063493333
21
-0.0254
50
180
41
0.75
7
W0$0381
0
TEXT
8
PART_NAME_04
10
-0.0063493333
20
-0.0254
40
0.56
1
C59
72
1
73
2
11
-0.0063493333
21
-0.0254
50
180
41
0.75
7
W0$0381
0
TEXT
8
LABEL_INFO
10
1.3235006667
20
1.1685286667
40
0.889
1
0 0 1 1 0 1
72
1
73
1
11
1.3235006667
21
1.1685286667
41
0.75
7
W0$127
0
TEXT
8
LABEL_ATTRIBUTE
10
1.3235006667
20
1.1685286667
40
0.889
1
Comment
72
1
73
1
11
1.3235006667
21
1.1685286667
41
0.75
7
W0$127
0
TEXT
8
ATTRIBUTE_04
10
1.3235006667
20
1.1685286667
40
0.889
1
 
72
1
73
2
11
1.3235006667
21
1.1685286667
41
0.75
7
W0$127
0
TEXT
8
PART_TYPE_BOT
10
1.3235006667
20
-0.1014713333
40
0.889
1
C0402
72
1
73
2
11
1.3235006667
21
-0.1014713333
41
0.75
7
W0$127
0
TEXT
8
PART_INFO
10
1.3235006667
20
-1.3714713333
40
0.889
1
000000
71
2
72
1
73
2
11
1.3235006667
21
-1.3714713333
41
0.75
7
W0$127
0
TEXT
8
PART_PTS
10
1.3235006667
20
-2.6414713333
40
0.889
1
1 2 
71
2
72
1
73
2
11
1.3235006667
21
-2.6414713333
41
0.75
7
W0$127
0
ENDBLK
0
BLOCK
2
PART_BOT_18
8
0
10
0
20
0
3
PART_BOT_18
70
64
0
INSERT
2
SYM_BOT_42
8
0
10
0
20
0
0
INSERT
2
PKG_34
8
0
10
0
20
0
41
-1
0
TEXT
8
LABEL_INFO
10
-1.5761993333
20
2.1493986667
40
0.56
1
0 0 0 0 0 1
41
0.75
7
W0$127
0
TEXT
8
LABEL_ATTRIBUTE
10
-1.5761993333
20
2.1493986667
40
0.56
1
Ref.Des.
41
0.75
7
W0$127
0
TEXT
8
PART_NAME_129
10
-1.5761993333
20
2.1493986667
40
0.56
1
R130
41
0.75
7
W0$127
0
TEXT
8
LABEL_INFO
10
-1.5761993333
20
0.8793986667
40
0.889
1
0 0 0 0 0 1
41
0.75
7
W0$127
0
TEXT
8
LABEL_ATTRIBUTE
10
-1.5761993333
20
0.8793986667
40
0.889
1
Comment
41
0.75
7
W0$127
0
TEXT
8
ATTRIBUTE_129
10
-1.5761993333
20
0.8793986667
40
0.889
1
 
41
0.75
7
W0$127
0
TEXT
8
PART_TYPE_BOT
10
-1.5761993333
20
-0.3906013333
40
0.889
1
R0603
41
0.75
7
W0$127
0
TEXT
8
PART_INFO
10
-1.5761993333
20
-1.6606013333
40
0.889
1
000000
71
2
41
0.75
7
W0$127
0
TEXT
8
PART_PTS
10
-1.5761993333
20
-2.9306013333
40
0.889
1
1 2 
71
2
41
0.75
7
W0$127
0
ENDBLK
0
BLOCK
2
PART_BOT_19
8
0
10
0
20
0
3
PART_BOT_19
70
64
0
INSERT
2
SYM_BOT_5
8
0
10
0
20
0
0
INSERT
2
PKG_2
8
0
10
0
20
0
41
-1
0
TEXT
8
LABEL_INFO
10
0
20
0
40
0.56
1
0 0 1 1 0 1
72
1
73
1
11
0
21
0
41
0.75
7
W0$127
0
TEXT
8
LABEL_ATTRIBUTE
10
0
20
0
40
0.56
1
Value
72
1
73
1
11
0
21
0
41
0.75
7
W0$127
0
TEXT
8
ATTRIBUTE_04
10
0
20
0
40
0.56
1
4.7UF
72
1
73
2
11
0
21
0
41
0.75
7
W0$127
0
TEXT
8
LABEL_INFO
10
-0.6096
20
-0.1524
40
0.56
1
0 0 0 0 0 1
41
0.75
7
W0$0381
0
TEXT
8
LABEL_ATTRIBUTE
10
-0.6096
20
-0.1524
40
0.56
1
Ref.Des.
41
0.75
7
W0$0381
0
TEXT
8
PART_NAME_04
10
-0.6096
20
-0.1524
40
0.56
1
C56
41
0.75
7
W0$0381
0
TEXT
8
LABEL_INFO
10
-1.7398993333
20
0.9051913333
40
0.889
1
0 0 0 0 0 1
41
0.75
7
W0$127
0
TEXT
8
LABEL_ATTRIBUTE
10
-1.7398993333
20
0.9051913333
40
0.889
1
Comment
41
0.75
7
W0$127
0
TEXT
8
ATTRIBUTE_04
10
-1.7398993333
20
0.9051913333
40
0.889
1
 
41
0.75
7
W0$127
0
TEXT
8
PART_TYPE_BOT
10
-1.7398993333
20
-0.3648086667
40
0.889
1
C0603
41
0.75
7
W0$127
0
TEXT
8
PART_INFO
10
-1.7398993333
20
-1.6348086667
40
0.889
1
000000
71
2
41
0.75
7
W0$127
0
TEXT
8
PART_PTS
10
-1.7398993333
20
-2.9048086667
40
0.889
1
1 2 
71
2
41
0.75
7
W0$127
0
ENDBLK
0
BLOCK
2
PART_BOT_22
8
0
10
0
20
0
3
PART_BOT_22
70
64
0
INSERT
2
SYM_BOT_17
8
0
10
0
20
0
0
INSERT
2
PKG_10
8
0
10
0
20
0
41
-1
0
TEXT
8
LABEL_INFO
10
-1.08585
20
0.7073893333
40
0.889
1
0 0 0 0 0 1
41
0.75
7
W0$127
0
TEXT
8
LABEL_ATTRIBUTE
10
-1.08585
20
0.7073893333
40
0.889
1
Comment
41
0.75
7
W0$127
0
TEXT
8
ATTRIBUTE_109
10
-1.08585
20
0.7073893333
40
0.889
1
 
41
0.75
7
W0$127
0
TEXT
8
LABEL_INFO
10
-1.08585
20
1.9773893333
40
0.889
1
0 0 0 0 0 1
41
0.75
7
W0$127
0
TEXT
8
LABEL_ATTRIBUTE
10
-1.08585
20
1.9773893333
40
0.889
1
Ref.Des.
41
0.75
7
W0$127
0
TEXT
8
PART_NAME_109
10
-1.08585
20
1.9773893333
40
0.889
1
ED26
41
0.75
7
W0$127
0
TEXT
8
PART_TYPE_BOT
10
-1.08585
20
0.7073893333
40
0.889
1
ESD0402
41
0.75
7
W0$127
0
TEXT
8
PART_INFO
10
-1.08585
20
-0.5626106667
40
0.889
1
000000
71
2
41
0.75
7
W0$127
0
TEXT
8
PART_PTS
10
-1.08585
20
-1.8326106667
40
0.889
1
1 2 
71
2
41
0.75
7
W0$127
0
ENDBLK
0
BLOCK
2
PART_BOT_23
8
0
10
0
20
0
3
PART_BOT_23
70
64
0
INSERT
2
SYM_BOT_69
8
0
10
0
20
0
0
INSERT
2
PKG_59
8
0
10
0
20
0
41
-1
0
TEXT
8
LABEL_INFO
10
-0.6245413333
20
-1.146716
40
0.56
1
0 0 0 0 0 1
41
0.75
7
W0$05127
0
TEXT
8
LABEL_ATTRIBUTE
10
-0.6245413333
20
-1.146716
40
0.56
1
Ref.Des.
41
0.75
7
W0$05127
0
TEXT
8
PART_NAME_04
10
-0.6245413333
20
-1.146716
40
0.56
1
U90056
41
0.75
7
W0$05127
0
TEXT
8
LABEL_INFO
10
2.0463333333
20
0.2043333333
40
0.889
1
0 0 0 2 0 1
73
2
11
2.0463333333
21
0.2043333333
41
0.75
7
W0$127
0
TEXT
8
LABEL_ATTRIBUTE
10
2.0463333333
20
0.2043333333
40
0.889
1
PartType
73
2
11
2.0463333333
21
0.2043333333
41
0.75
7
W0$127
0
TEXT
8
PART_TYPE_04
10
2.0463333333
20
0.2043333333
40
0.889
1
CSP-12
73
3
11
2.0463333333
21
0.2043333333
41
0.75
7
W0$127
0
TEXT
8
PART_INFO
10
2.0463333333
20
-1.0656666667
40
0.889
1
000000
71
2
73
3
11
2.0463333333
21
-1.0656666667
41
0.75
7
W0$127
0
TEXT
8
PART_PTS
10
2.0463333333
20
-2.3356666667
40
0.889
1
1 2 3 4 5 6 7 8 9 10 11 12 
71
2
73
3
11
2.0463333333
21
-2.3356666667
41
0.75
7
W0$127
0
ENDBLK
0
BLOCK
2
PART_BOT_24
8
0
10
0
20
0
3
PART_BOT_24
70
64
0
INSERT
2
SYM_BOT_17
8
0
10
0
20
0
0
INSERT
2
PKG_10
8
0
10
0
20
0
41
-1
0
TEXT
8
LABEL_INFO
10
-1.08585
20
0.7073893333
40
0.889
1
0 0 0 0 0 1
41
0.75
7
W0$127
0
TEXT
8
LABEL_ATTRIBUTE
10
-1.08585
20
0.7073893333
40
0.889
1
Comment
41
0.75
7
W0$127
0
TEXT
8
ATTRIBUTE_109
10
-1.08585
20
0.7073893333
40
0.889
1
 
41
0.75
7
W0$127
0
TEXT
8
LABEL_INFO
10
-1.08585
20
1.9773893333
40
0.889
1
0 0 0 0 0 1
41
0.75
7
W0$127
0
TEXT
8
LABEL_ATTRIBUTE
10
-1.08585
20
1.9773893333
40
0.889
1
Ref.Des.
41
0.75
7
W0$127
0
TEXT
8
PART_NAME_109
10
-1.08585
20
1.9773893333
40
0.889
1
ED27
41
0.75
7
W0$127
0
TEXT
8
PART_TYPE_BOT
10
-1.08585
20
0.7073893333
40
0.889
1
ESD0402
41
0.75
7
W0$127
0
TEXT
8
PART_INFO
10
-1.08585
20
-0.5626106667
40
0.889
1
000000
71
2
41
0.75
7
W0$127
0
TEXT
8
PART_PTS
10
-1.08585
20
-1.8326106667
40
0.889
1
1 2 
71
2
41
0.75
7
W0$127
0
ENDBLK
0
BLOCK
2
PART_BOT_25
8
0
10
0
20
0
3
PART_BOT_25
70
64
0
INSERT
2
SYM_BOT_19
8
0
10
0
20
0
0
INSERT
2
PKG_12
8
0
10
0
20
0
41
-1
0
TEXT
8
LABEL_INFO
10
0
20
0
40
0.56
1
0 0 1 1 0 1
72
1
73
1
11
0
21
0
41
0.75
7
W0$127
0
TEXT
8
LABEL_ATTRIBUTE
10
0
20
0
40
0.56
1
Value
72
1
73
1
11
0
21
0
41
0.75
7
W0$127
0
TEXT
8
ATTRIBUTE_04
10
0
20
0
40
0.56
1
4.7K
72
1
73
2
11
0
21
0
41
0.75
7
W0$127
0
TEXT
8
LABEL_INFO
10
-0.598
20
-0.155
40
0.56
1
0 0 0 0 0 1
41
0.75
7
W0$0381
0
TEXT
8
LABEL_ATTRIBUTE
10
-0.598
20
-0.155
40
0.56
1
Ref.Des.
41
0.75
7
W0$0381
0
TEXT
8
PART_NAME_04
10
-0.598
20
-0.155
40
0.56
1
R60
41
0.75
7
W0$0381
0
TEXT
8
LABEL_INFO
10
-0.963498
20
0.6666986667
40
0.889
1
0 0 0 0 0 1
41
0.75
7
W0$127
0
TEXT
8
LABEL_ATTRIBUTE
10
-0.963498
20
0.6666986667
40
0.889
1
Comment
41
0.75
7
W0$127
0
TEXT
8
ATTRIBUTE_04
10
-0.963498
20
0.6666986667
40
0.889
1
 
41
0.75
7
W0$127
0
TEXT
8
PART_TYPE_BOT
10
-0.963498
20
-0.6033013333
40
0.889
1
R0402
41
0.75
7
W0$127
0
TEXT
8
PART_INFO
10
-0.963498
20
-1.8733013333
40
0.889
1
000000
71
2
41
0.75
7
W0$127
0
TEXT
8
PART_PTS
10
-0.963498
20
-3.1433013333
40
0.889
1
1 2 
71
2
41
0.75
7
W0$127
0
ENDBLK
0
BLOCK
2
PART_BOT_26
8
0
10
0
20
0
3
PART_BOT_26
70
64
0
INSERT
2
SYM_BOT_19
8
0
10
0
20
0
0
INSERT
2
PKG_12
8
0
10
0
20
0
41
-1
0
TEXT
8
LABEL_INFO
10
0
20
0
40
0.56
1
0 0 1 1 0 1
72
1
73
1
11
0
21
0
41
0.75
7
W0$127
0
TEXT
8
LABEL_ATTRIBUTE
10
0
20
0
40
0.56
1
Value
72
1
73
1
11
0
21
0
41
0.75
7
W0$127
0
TEXT
8
ATTRIBUTE_04
10
0
20
0
40
0.56
1
4.7K
72
1
73
2
11
0
21
0
41
0.75
7
W0$127
0
TEXT
8
LABEL_INFO
10
-0.598
20
-0.155
40
0.56
1
0 0 0 0 0 1
41
0.75
7
W0$0381
0
TEXT
8
LABEL_ATTRIBUTE
10
-0.598
20
-0.155
40
0.56
1
Ref.Des.
41
0.75
7
W0$0381
0
TEXT
8
PART_NAME_04
10
-0.598
20
-0.155
40
0.56
1
R59
41
0.75
7
W0$0381
0
TEXT
8
LABEL_INFO
10
-0.963498
20
0.6666986667
40
0.889
1
0 0 0 0 0 1
41
0.75
7
W0$127
0
TEXT
8
LABEL_ATTRIBUTE
10
-0.963498
20
0.6666986667
40
0.889
1
Comment
41
0.75
7
W0$127
0
TEXT
8
ATTRIBUTE_04
10
-0.963498
20
0.6666986667
40
0.889
1
 
41
0.75
7
W0$127
0
TEXT
8
PART_TYPE_BOT
10
-0.963498
20
-0.6033013333
40
0.889
1
R0402
41
0.75
7
W0$127
0
TEXT
8
PART_INFO
10
-0.963498
20
-1.8733013333
40
0.889
1
000000
71
2
41
0.75
7
W0$127
0
TEXT
8
PART_PTS
10
-0.963498
20
-3.1433013333
40
0.889
1
1 2 
71
2
41
0.75
7
W0$127
0
ENDBLK
0
BLOCK
2
PART_BOT_27
8
0
10
0
20
0
3
PART_BOT_27
70
64
0
INSERT
2
SYM_BOT_69
8
0
10
0
20
0
0
INSERT
2
PKG_59
8
0
10
0
20
0
41
-1
0
TEXT
8
LABEL_INFO
10
-0.4799993333
20
-0.84
40
0.56
1
0 0 0 0 0 1
41
0.75
7
W0$05127
0
TEXT
8
LABEL_ATTRIBUTE
10
-0.4799993333
20
-0.84
40
0.56
1
Ref.Des.
41
0.75
7
W0$05127
0
TEXT
8
PART_NAME_04
10
-0.4799993333
20
-0.84
40
0.56
1
U90052
41
0.75
7
W0$05127
0
TEXT
8
LABEL_INFO
10
2.0463333333
20
0.2043333333
40
0.889
1
0 0 0 2 0 1
73
2
11
2.0463333333
21
0.2043333333
41
0.75
7
W0$127
0
TEXT
8
LABEL_ATTRIBUTE
10
2.0463333333
20
0.2043333333
40
0.889
1
PartType
73
2
11
2.0463333333
21
0.2043333333
41
0.75
7
W0$127
0
TEXT
8
PART_TYPE_04
10
2.0463333333
20
0.2043333333
40
0.889
1
CSP-12
73
3
11
2.0463333333
21
0.2043333333
41
0.75
7
W0$127
0
TEXT
8
PART_INFO
10
2.0463333333
20
-1.0656666667
40
0.889
1
000000
71
2
73
3
11
2.0463333333
21
-1.0656666667
41
0.75
7
W0$127
0
TEXT
8
PART_PTS
10
2.0463333333
20
-2.3356666667
40
0.889
1
1 2 3 4 5 6 7 8 9 10 11 12 
71
2
73
3
11
2.0463333333
21
-2.3356666667
41
0.75
7
W0$127
0
ENDBLK
0
BLOCK
2
PART_BOT_36
8
0
10
0
20
0
3
PART_BOT_36
70
64
0
INSERT
2
SYM_BOT_5
8
0
10
0
20
0
0
INSERT
2
PKG_2
8
0
10
0
20
0
41
-1
0
TEXT
8
LABEL_INFO
10
0
20
0
40
0.56
1
0 0 1 1 0 1
72
1
73
1
11
0
21
0
41
0.75
7
W0$127
0
TEXT
8
LABEL_ATTRIBUTE
10
0
20
0
40
0.56
1
Value
72
1
73
1
11
0
21
0
41
0.75
7
W0$127
0
TEXT
8
ATTRIBUTE_04
10
0
20
0
40
0.56
1
4.7UF
72
1
73
2
11
0
21
0
41
0.75
7
W0$127
0
TEXT
8
LABEL_INFO
10
-0.6493333333
20
-0.1346666667
40
0.56
1
0 0 0 0 0 1
41
0.75
7
W0$0381
0
TEXT
8
LABEL_ATTRIBUTE
10
-0.6493333333
20
-0.1346666667
40
0.56
1
Ref.Des.
41
0.75
7
W0$0381
0
TEXT
8
PART_NAME_04
10
-0.6493333333
20
-0.1346666667
40
0.56
1
C75
41
0.75
7
W0$0381
0
TEXT
8
LABEL_INFO
10
-1.7398993333
20
0.9051913333
40
0.889
1
0 0 0 0 0 1
41
0.75
7
W0$127
0
TEXT
8
LABEL_ATTRIBUTE
10
-1.7398993333
20
0.9051913333
40
0.889
1
Comment
41
0.75
7
W0$127
0
TEXT
8
ATTRIBUTE_04
10
-1.7398993333
20
0.9051913333
40
0.889
1
 
41
0.75
7
W0$127
0
TEXT
8
PART_TYPE_BOT
10
-1.7398993333
20
-0.3648086667
40
0.889
1
C0603
41
0.75
7
W0$127
0
TEXT
8
PART_INFO
10
-1.7398993333
20
-1.6348086667
40
0.889
1
000000
71
2
41
0.75
7
W0$127
0
TEXT
8
PART_PTS
10
-1.7398993333
20
-2.9048086667
40
0.889
1
1 2 
71
2
41
0.75
7
W0$127
0
ENDBLK
0
BLOCK
2
PART_BOT_37
8
0
10
0
20
0
3
PART_BOT_37
70
64
0
INSERT
2
SYM_BOT_5
8
0
10
0
20
0
0
INSERT
2
PKG_2
8
0
10
0
20
0
41
-1
0
TEXT
8
LABEL_INFO
10
0
20
0
40
0.56
1
0 0 1 1 0 1
72
1
73
1
11
0
21
0
41
0.75
7
W0$127
0
TEXT
8
LABEL_ATTRIBUTE
10
0
20
0
40
0.56
1
Value
72
1
73
1
11
0
21
0
41
0.75
7
W0$127
0
TEXT
8
ATTRIBUTE_04
10
0
20
0
40
0.56
1
4.7UF
72
1
73
2
11
0
21
0
41
0.75
7
W0$127
0
TEXT
8
LABEL_INFO
10
-0.6493333333
20
-0.1346666667
40
0.56
1
0 0 0 0 0 1
41
0.75
7
W0$0381
0
TEXT
8
LABEL_ATTRIBUTE
10
-0.6493333333
20
-0.1346666667
40
0.56
1
Ref.Des.
41
0.75
7
W0$0381
0
TEXT
8
PART_NAME_04
10
-0.6493333333
20
-0.1346666667
40
0.56
1
C76
41
0.75
7
W0$0381
0
TEXT
8
LABEL_INFO
10
-1.7398993333
20
0.9051913333
40
0.889
1
0 0 0 0 0 1
41
0.75
7
W0$127
0
TEXT
8
LABEL_ATTRIBUTE
10
-1.7398993333
20
0.9051913333
40
0.889
1
Comment
41
0.75
7
W0$127
0
TEXT
8
ATTRIBUTE_04
10
-1.7398993333
20
0.9051913333
40
0.889
1
 
41
0.75
7
W0$127
0
TEXT
8
PART_TYPE_BOT
10
-1.7398993333
20
-0.3648086667
40
0.889
1
C0603
41
0.75
7
W0$127
0
TEXT
8
PART_INFO
10
-1.7398993333
20
-1.6348086667
40
0.889
1
000000
71
2
41
0.75
7
W0$127
0
TEXT
8
PART_PTS
10
-1.7398993333
20
-2.9048086667
40
0.889
1
1 2 
71
2
41
0.75
7
W0$127
0
ENDBLK
0
BLOCK
2
PART_BOT_38
8
0
10
0
20
0
3
PART_BOT_38
70
64
0
INSERT
2
SYM_BOT_4
8
0
10
0
20
0
0
INSERT
2
PKG_1
8
0
10
0
20
0
41
-1
0
TEXT
8
LABEL_INFO
10
0
20
0
40
0.56
1
0 0 1 1 0 1
72
1
73
1
11
0
21
0
41
0.75
7
W0$127
0
TEXT
8
LABEL_ATTRIBUTE
10
0
20
0
40
0.56
1
Value
72
1
73
1
11
0
21
0
41
0.75
7
W0$127
0
TEXT
8
ATTRIBUTE_04
10
0
20
0
40
0.56
1
100NF
72
1
73
2
11
0
21
0
41
0.75
7
W0$127
0
TEXT
8
LABEL_INFO
10
-0.0353333333
20
0.0363333333
40
0.56
1
0 0 1 1 0 1
72
1
73
1
11
-0.0353333333
21
0.0363333333
41
0.75
7
W0$0381
0
TEXT
8
LABEL_ATTRIBUTE
10
-0.0353333333
20
0.0363333333
40
0.56
1
Ref.Des.
72
1
73
1
11
-0.0353333333
21
0.0363333333
41
0.75
7
W0$0381
0
TEXT
8
PART_NAME_04
10
-0.0353333333
20
0.0363333333
40
0.56
1
C77
72
1
73
2
11
-0.0353333333
21
0.0363333333
41
0.75
7
W0$0381
0
TEXT
8
LABEL_INFO
10
1.3235006667
20
1.1685286667
40
0.889
1
0 0 1 1 0 1
72
1
73
1
11
1.3235006667
21
1.1685286667
41
0.75
7
W0$127
0
TEXT
8
LABEL_ATTRIBUTE
10
1.3235006667
20
1.1685286667
40
0.889
1
Comment
72
1
73
1
11
1.3235006667
21
1.1685286667
41
0.75
7
W0$127
0
TEXT
8
ATTRIBUTE_04
10
1.3235006667
20
1.1685286667
40
0.889
1
 
72
1
73
2
11
1.3235006667
21
1.1685286667
41
0.75
7
W0$127
0
TEXT
8
PART_TYPE_BOT
10
1.3235006667
20
-0.1014713333
40
0.889
1
C0402
72
1
73
2
11
1.3235006667
21
-0.1014713333
41
0.75
7
W0$127
0
TEXT
8
PART_INFO
10
1.3235006667
20
-1.3714713333
40
0.889
1
000000
71
2
72
1
73
2
11
1.3235006667
21
-1.3714713333
41
0.75
7
W0$127
0
TEXT
8
PART_PTS
10
1.3235006667
20
-2.6414713333
40
0.889
1
1 2 
71
2
72
1
73
2
11
1.3235006667
21
-2.6414713333
41
0.75
7
W0$127
0
ENDBLK
0
BLOCK
2
PART_BOT_39
8
0
10
0
20
0
3
PART_BOT_39
70
64
0
INSERT
2
SYM_BOT_4
8
0
10
0
20
0
0
INSERT
2
PKG_1
8
0
10
0
20
0
41
-1
0
TEXT
8
LABEL_INFO
10
0
20
0
40
0.56
1
0 0 1 1 0 1
72
1
73
1
11
0
21
0
41
0.75
7
W0$127
0
TEXT
8
LABEL_ATTRIBUTE
10
0
20
0
40
0.56
1
Value
72
1
73
1
11
0
21
0
41
0.75
7
W0$127
0
TEXT
8
ATTRIBUTE_04
10
0
20
0
40
0.56
1
100NF
72
1
73
2
11
0
21
0
41
0.75
7
W0$127
0
TEXT
8
LABEL_INFO
10
-0.0353333333
20
0.0363333333
40
0.56
1
0 0 1 1 0 1
72
1
73
1
11
-0.0353333333
21
0.0363333333
41
0.75
7
W0$0381
0
TEXT
8
LABEL_ATTRIBUTE
10
-0.0353333333
20
0.0363333333
40
0.56
1
Ref.Des.
72
1
73
1
11
-0.0353333333
21
0.0363333333
41
0.75
7
W0$0381
0
TEXT
8
PART_NAME_04
10
-0.0353333333
20
0.0363333333
40
0.56
1
C60
72
1
73
2
11
-0.0353333333
21
0.0363333333
41
0.75
7
W0$0381
0
TEXT
8
LABEL_INFO
10
1.3235006667
20
1.1685286667
40
0.889
1
0 0 1 1 0 1
72
1
73
1
11
1.3235006667
21
1.1685286667
41
0.75
7
W0$127
0
TEXT
8
LABEL_ATTRIBUTE
10
1.3235006667
20
1.1685286667
40
0.889
1
Comment
72
1
73
1
11
1.3235006667
21
1.1685286667
41
0.75
7
W0$127
0
TEXT
8
ATTRIBUTE_04
10
1.3235006667
20
1.1685286667
40
0.889
1
 
72
1
73
2
11
1.3235006667
21
1.1685286667
41
0.75
7
W0$127
0
TEXT
8
PART_TYPE_BOT
10
1.3235006667
20
-0.1014713333
40
0.889
1
C0402
72
1
73
2
11
1.3235006667
21
-0.1014713333
41
0.75
7
W0$127
0
TEXT
8
PART_INFO
10
1.3235006667
20
-1.3714713333
40
0.889
1
000000
71
2
72
1
73
2
11
1.3235006667
21
-1.3714713333
41
0.75
7
W0$127
0
TEXT
8
PART_PTS
10
1.3235006667
20
-2.6414713333
40
0.889
1
1 2 
71
2
72
1
73
2
11
1.3235006667
21
-2.6414713333
41
0.75
7
W0$127
0
ENDBLK
0
BLOCK
2
PART_BOT_40
8
0
10
0
20
0
3
PART_BOT_40
70
64
0
INSERT
2
SYM_BOT_4
8
0
10
0
20
0
0
INSERT
2
PKG_1
8
0
10
0
20
0
41
-1
0
TEXT
8
LABEL_INFO
10
0
20
0
40
0.56
1
0 0 1 1 0 1
72
1
73
1
11
0
21
0
41
0.75
7
W0$127
0
TEXT
8
LABEL_ATTRIBUTE
10
0
20
0
40
0.56
1
Value
72
1
73
1
11
0
21
0
41
0.75
7
W0$127
0
TEXT
8
ATTRIBUTE_04
10
0
20
0
40
0.56
1
100NF
72
1
73
2
11
0
21
0
41
0.75
7
W0$127
0
TEXT
8
LABEL_INFO
10
-0.0353333333
20
0.0363333333
40
0.56
1
0 0 1 1 0 1
72
1
73
1
11
-0.0353333333
21
0.0363333333
41
0.75
7
W0$0381
0
TEXT
8
LABEL_ATTRIBUTE
10
-0.0353333333
20
0.0363333333
40
0.56
1
Ref.Des.
72
1
73
1
11
-0.0353333333
21
0.0363333333
41
0.75
7
W0$0381
0
TEXT
8
PART_NAME_04
10
-0.0353333333
20
0.0363333333
40
0.56
1
C61
72
1
73
2
11
-0.0353333333
21
0.0363333333
41
0.75
7
W0$0381
0
TEXT
8
LABEL_INFO
10
1.3235006667
20
1.1685286667
40
0.889
1
0 0 1 1 0 1
72
1
73
1
11
1.3235006667
21
1.1685286667
41
0.75
7
W0$127
0
TEXT
8
LABEL_ATTRIBUTE
10
1.3235006667
20
1.1685286667
40
0.889
1
Comment
72
1
73
1
11
1.3235006667
21
1.1685286667
41
0.75
7
W0$127
0
TEXT
8
ATTRIBUTE_04
10
1.3235006667
20
1.1685286667
40
0.889
1
 
72
1
73
2
11
1.3235006667
21
1.1685286667
41
0.75
7
W0$127
0
TEXT
8
PART_TYPE_BOT
10
1.3235006667
20
-0.1014713333
40
0.889
1
C0402
72
1
73
2
11
1.3235006667
21
-0.1014713333
41
0.75
7
W0$127
0
TEXT
8
PART_INFO
10
1.3235006667
20
-1.3714713333
40
0.889
1
000000
71
2
72
1
73
2
11
1.3235006667
21
-1.3714713333
41
0.75
7
W0$127
0
TEXT
8
PART_PTS
10
1.3235006667
20
-2.6414713333
40
0.889
1
1 2 
71
2
72
1
73
2
11
1.3235006667
21
-2.6414713333
41
0.75
7
W0$127
0
ENDBLK
0
BLOCK
2
PART_BOT_41
8
0
10
0
20
0
3
PART_BOT_41
70
64
0
INSERT
2
SYM_BOT_5
8
0
10
0
20
0
0
INSERT
2
PKG_2
8
0
10
0
20
0
41
-1
0
TEXT
8
LABEL_INFO
10
0
20
0
40
0.56
1
0 0 1 1 0 1
72
1
73
1
11
0
21
0
41
0.75
7
W0$127
0
TEXT
8
LABEL_ATTRIBUTE
10
0
20
0
40
0.56
1
Value
72
1
73
1
11
0
21
0
41
0.75
7
W0$127
0
TEXT
8
ATTRIBUTE_04
10
0
20
0
40
0.56
1
10UF
72
1
73
2
11
0
21
0
41
0.75
7
W0$127
0
TEXT
8
LABEL_INFO
10
-0.6493333333
20
-0.1346666667
40
0.56
1
0 0 0 0 0 1
41
0.75
7
W0$0381
0
TEXT
8
LABEL_ATTRIBUTE
10
-0.6493333333
20
-0.1346666667
40
0.56
1
Ref.Des.
41
0.75
7
W0$0381
0
TEXT
8
PART_NAME_04
10
-0.6493333333
20
-0.1346666667
40
0.56
1
C63
41
0.75
7
W0$0381
0
TEXT
8
LABEL_INFO
10
-1.7398993333
20
0.9051913333
40
0.889
1
0 0 0 0 0 1
41
0.75
7
W0$127
0
TEXT
8
LABEL_ATTRIBUTE
10
-1.7398993333
20
0.9051913333
40
0.889
1
Comment
41
0.75
7
W0$127
0
TEXT
8
ATTRIBUTE_04
10
-1.7398993333
20
0.9051913333
40
0.889
1
 
41
0.75
7
W0$127
0
TEXT
8
PART_TYPE_BOT
10
-1.7398993333
20
-0.3648086667
40
0.889
1
C0603
41
0.75
7
W0$127
0
TEXT
8
PART_INFO
10
-1.7398993333
20
-1.6348086667
40
0.889
1
000000
71
2
41
0.75
7
W0$127
0
TEXT
8
PART_PTS
10
-1.7398993333
20
-2.9048086667
40
0.889
1
1 2 
71
2
41
0.75
7
W0$127
0
ENDBLK
0
BLOCK
2
PART_BOT_42
8
0
10
0
20
0
3
PART_BOT_42
70
64
0
INSERT
2
SYM_BOT_4
8
0
10
0
20
0
0
INSERT
2
PKG_1
8
0
10
0
20
0
41
-1
0
TEXT
8
LABEL_INFO
10
0
20
0
40
0.56
1
0 0 1 1 0 1
72
1
73
1
11
0
21
0
41
0.75
7
W0$127
0
TEXT
8
LABEL_ATTRIBUTE
10
0
20
0
40
0.56
1
Value
72
1
73
1
11
0
21
0
41
0.75
7
W0$127
0
TEXT
8
ATTRIBUTE_04
10
0
20
0
40
0.56
1
4.7UF
72
1
73
2
11
0
21
0
41
0.75
7
W0$127
0
TEXT
8
LABEL_INFO
10
-0.0353333333
20
0.0363333333
40
0.56
1
0 0 1 1 0 1
72
1
73
1
11
-0.0353333333
21
0.0363333333
41
0.75
7
W0$0381
0
TEXT
8
LABEL_ATTRIBUTE
10
-0.0353333333
20
0.0363333333
40
0.56
1
Ref.Des.
72
1
73
1
11
-0.0353333333
21
0.0363333333
41
0.75
7
W0$0381
0
TEXT
8
PART_NAME_04
10
-0.0353333333
20
0.0363333333
40
0.56
1
C64
72
1
73
2
11
-0.0353333333
21
0.0363333333
41
0.75
7
W0$0381
0
TEXT
8
LABEL_INFO
10
1.3235006667
20
1.1685286667
40
0.889
1
0 0 1 1 0 1
72
1
73
1
11
1.3235006667
21
1.1685286667
41
0.75
7
W0$127
0
TEXT
8
LABEL_ATTRIBUTE
10
1.3235006667
20
1.1685286667
40
0.889
1
Comment
72
1
73
1
11
1.3235006667
21
1.1685286667
41
0.75
7
W0$127
0
TEXT
8
ATTRIBUTE_04
10
1.3235006667
20
1.1685286667
40
0.889
1
 
72
1
73
2
11
1.3235006667
21
1.1685286667
41
0.75
7
W0$127
0
TEXT
8
PART_TYPE_BOT
10
1.3235006667
20
-0.1014713333
40
0.889
1
C0402
72
1
73
2
11
1.3235006667
21
-0.1014713333
41
0.75
7
W0$127
0
TEXT
8
PART_INFO
10
1.3235006667
20
-1.3714713333
40
0.889
1
000000
71
2
72
1
73
2
11
1.3235006667
21
-1.3714713333
41
0.75
7
W0$127
0
TEXT
8
PART_PTS
10
1.3235006667
20
-2.6414713333
40
0.889
1
1 2 
71
2
72
1
73
2
11
1.3235006667
21
-2.6414713333
41
0.75
7
W0$127
0
ENDBLK
0
BLOCK
2
PART_BOT_43
8
0
10
0
20
0
3
PART_BOT_43
70
64
0
INSERT
2
SYM_BOT_5
8
0
10
0
20
0
0
INSERT
2
PKG_2
8
0
10
0
20
0
41
-1
0
TEXT
8
LABEL_INFO
10
0
20
0
40
0.56
1
0 0 1 1 0 1
72
1
73
1
11
0
21
0
41
0.75
7
W0$127
0
TEXT
8
LABEL_ATTRIBUTE
10
0
20
0
40
0.56
1
Value
72
1
73
1
11
0
21
0
41
0.75
7
W0$127
0
TEXT
8
ATTRIBUTE_04
10
0
20
0
40
0.56
1
10UF
72
1
73
2
11
0
21
0
41
0.75
7
W0$127
0
TEXT
8
LABEL_INFO
10
-0.6493333333
20
-0.1346666667
40
0.56
1
0 0 0 0 0 1
41
0.75
7
W0$0381
0
TEXT
8
LABEL_ATTRIBUTE
10
-0.6493333333
20
-0.1346666667
40
0.56
1
Ref.Des.
41
0.75
7
W0$0381
0
TEXT
8
PART_NAME_04
10
-0.6493333333
20
-0.1346666667
40
0.56
1
C65
41
0.75
7
W0$0381
0
TEXT
8
LABEL_INFO
10
-1.7398993333
20
0.9051913333
40
0.889
1
0 0 0 0 0 1
41
0.75
7
W0$127
0
TEXT
8
LABEL_ATTRIBUTE
10
-1.7398993333
20
0.9051913333
40
0.889
1
Comment
41
0.75
7
W0$127
0
TEXT
8
ATTRIBUTE_04
10
-1.7398993333
20
0.9051913333
40
0.889
1
 
41
0.75
7
W0$127
0
TEXT
8
PART_TYPE_BOT
10
-1.7398993333
20
-0.3648086667
40
0.889
1
C0603
41
0.75
7
W0$127
0
TEXT
8
PART_INFO
10
-1.7398993333
20
-1.6348086667
40
0.889
1
000000
71
2
41
0.75
7
W0$127
0
TEXT
8
PART_PTS
10
-1.7398993333
20
-2.9048086667
40
0.889
1
1 2 
71
2
41
0.75
7
W0$127
0
ENDBLK
0
BLOCK
2
PART_BOT_44
8
0
10
0
20
0
3
PART_BOT_44
70
64
0
INSERT
2
SYM_BOT_5
8
0
10
0
20
0
0
INSERT
2
PKG_2
8
0
10
0
20
0
41
-1
0
TEXT
8
LABEL_INFO
10
0
20
0
40
0.56
1
0 0 1 1 0 1
72
1
73
1
11
0
21
0
41
0.75
7
W0$127
0
TEXT
8
LABEL_ATTRIBUTE
10
0
20
0
40
0.56
1
Value
72
1
73
1
11
0
21
0
41
0.75
7
W0$127
0
TEXT
8
ATTRIBUTE_04
10
0
20
0
40
0.56
1
10UF
72
1
73
2
11
0
21
0
41
0.75
7
W0$127
0
TEXT
8
LABEL_INFO
10
-0.6493333333
20
-0.1346666667
40
0.56
1
0 0 0 0 0 1
41
0.75
7
W0$0381
0
TEXT
8
LABEL_ATTRIBUTE
10
-0.6493333333
20
-0.1346666667
40
0.56
1
Ref.Des.
41
0.75
7
W0$0381
0
TEXT
8
PART_NAME_04
10
-0.6493333333
20
-0.1346666667
40
0.56
1
C66
41
0.75
7
W0$0381
0
TEXT
8
LABEL_INFO
10
-1.7398993333
20
0.9051913333
40
0.889
1
0 0 0 0 0 1
41
0.75
7
W0$127
0
TEXT
8
LABEL_ATTRIBUTE
10
-1.7398993333
20
0.9051913333
40
0.889
1
Comment
41
0.75
7
W0$127
0
TEXT
8
ATTRIBUTE_04
10
-1.7398993333
20
0.9051913333
40
0.889
1
 
41
0.75
7
W0$127
0
TEXT
8
PART_TYPE_BOT
10
-1.7398993333
20
-0.3648086667
40
0.889
1
C0603
41
0.75
7
W0$127
0
TEXT
8
PART_INFO
10
-1.7398993333
20
-1.6348086667
40
0.889
1
000000
71
2
41
0.75
7
W0$127
0
TEXT
8
PART_PTS
10
-1.7398993333
20
-2.9048086667
40
0.889
1
1 2 
71
2
41
0.75
7
W0$127
0
ENDBLK
0
BLOCK
2
PART_BOT_45
8
0
10
0
20
0
3
PART_BOT_45
70
64
0
INSERT
2
SYM_BOT_5
8
0
10
0
20
0
0
INSERT
2
PKG_2
8
0
10
0
20
0
41
-1
0
TEXT
8
LABEL_INFO
10
0
20
0
40
0.56
1
0 0 1 1 0 1
72
1
73
1
11
0
21
0
41
0.75
7
W0$127
0
TEXT
8
LABEL_ATTRIBUTE
10
0
20
0
40
0.56
1
Value
72
1
73
1
11
0
21
0
41
0.75
7
W0$127
0
TEXT
8
ATTRIBUTE_04
10
0
20
0
40
0.56
1
10UF
72
1
73
2
11
0
21
0
41
0.75
7
W0$127
0
TEXT
8
LABEL_INFO
10
-0.6493333333
20
-0.1346666667
40
0.56
1
0 0 0 0 0 1
41
0.75
7
W0$0381
0
TEXT
8
LABEL_ATTRIBUTE
10
-0.6493333333
20
-0.1346666667
40
0.56
1
Ref.Des.
41
0.75
7
W0$0381
0
TEXT
8
PART_NAME_04
10
-0.6493333333
20
-0.1346666667
40
0.56
1
C71
41
0.75
7
W0$0381
0
TEXT
8
LABEL_INFO
10
-1.7398993333
20
0.9051913333
40
0.889
1
0 0 0 0 0 1
41
0.75
7
W0$127
0
TEXT
8
LABEL_ATTRIBUTE
10
-1.7398993333
20
0.9051913333
40
0.889
1
Comment
41
0.75
7
W0$127
0
TEXT
8
ATTRIBUTE_04
10
-1.7398993333
20
0.9051913333
40
0.889
1
 
41
0.75
7
W0$127
0
TEXT
8
PART_TYPE_BOT
10
-1.7398993333
20
-0.3648086667
40
0.889
1
C0603
41
0.75
7
W0$127
0
TEXT
8
PART_INFO
10
-1.7398993333
20
-1.6348086667
40
0.889
1
000000
71
2
41
0.75
7
W0$127
0
TEXT
8
PART_PTS
10
-1.7398993333
20
-2.9048086667
40
0.889
1
1 2 
71
2
41
0.75
7
W0$127
0
ENDBLK
0
BLOCK
2
PART_BOT_46
8
0
10
0
20
0
3
PART_BOT_46
70
64
0
INSERT
2
SYM_BOT_5
8
0
10
0
20
0
0
INSERT
2
PKG_2
8
0
10
0
20
0
41
-1
0
TEXT
8
LABEL_INFO
10
0
20
0
40
0.56
1
0 0 1 1 0 1
72
1
73
1
11
0
21
0
41
0.75
7
W0$127
0
TEXT
8
LABEL_ATTRIBUTE
10
0
20
0
40
0.56
1
Value
72
1
73
1
11
0
21
0
41
0.75
7
W0$127
0
TEXT
8
ATTRIBUTE_04
10
0
20
0
40
0.56
1
10UF
72
1
73
2
11
0
21
0
41
0.75
7
W0$127
0
TEXT
8
LABEL_INFO
10
-0.6493333333
20
-0.1346666667
40
0.56
1
0 0 0 0 0 1
41
0.75
7
W0$0381
0
TEXT
8
LABEL_ATTRIBUTE
10
-0.6493333333
20
-0.1346666667
40
0.56
1
Ref.Des.
41
0.75
7
W0$0381
0
TEXT
8
PART_NAME_04
10
-0.6493333333
20
-0.1346666667
40
0.56
1
C73
41
0.75
7
W0$0381
0
TEXT
8
LABEL_INFO
10
-1.7398993333
20
0.9051913333
40
0.889
1
0 0 0 0 0 1
41
0.75
7
W0$127
0
TEXT
8
LABEL_ATTRIBUTE
10
-1.7398993333
20
0.9051913333
40
0.889
1
Comment
41
0.75
7
W0$127
0
TEXT
8
ATTRIBUTE_04
10
-1.7398993333
20
0.9051913333
40
0.889
1
 
41
0.75
7
W0$127
0
TEXT
8
PART_TYPE_BOT
10
-1.7398993333
20
-0.3648086667
40
0.889
1
C0603
41
0.75
7
W0$127
0
TEXT
8
PART_INFO
10
-1.7398993333
20
-1.6348086667
40
0.889
1
000000
71
2
41
0.75
7
W0$127
0
TEXT
8
PART_PTS
10
-1.7398993333
20
-2.9048086667
40
0.889
1
1 2 
71
2
41
0.75
7
W0$127
0
ENDBLK
0
BLOCK
2
PART_BOT_47
8
0
10
0
20
0
3
PART_BOT_47
70
64
0
INSERT
2
SYM_BOT_4
8
0
10
0
20
0
0
INSERT
2
PKG_1
8
0
10
0
20
0
41
-1
0
TEXT
8
LABEL_INFO
10
0
20
0
40
0.56
1
0 0 1 1 0 1
72
1
73
1
11
0
21
0
41
0.75
7
W0$127
0
TEXT
8
LABEL_ATTRIBUTE
10
0
20
0
40
0.56
1
Value
72
1
73
1
11
0
21
0
41
0.75
7
W0$127
0
TEXT
8
ATTRIBUTE_04
10
0
20
0
40
0.56
1
100NF
72
1
73
2
11
0
21
0
41
0.75
7
W0$127
0
TEXT
8
LABEL_INFO
10
-0.0353333333
20
0.0363333333
40
0.56
1
0 0 1 1 0 1
72
1
73
1
11
-0.0353333333
21
0.0363333333
41
0.75
7
W0$0381
0
TEXT
8
LABEL_ATTRIBUTE
10
-0.0353333333
20
0.0363333333
40
0.56
1
Ref.Des.
72
1
73
1
11
-0.0353333333
21
0.0363333333
41
0.75
7
W0$0381
0
TEXT
8
PART_NAME_04
10
-0.0353333333
20
0.0363333333
40
0.56
1
C74
72
1
73
2
11
-0.0353333333
21
0.0363333333
41
0.75
7
W0$0381
0
TEXT
8
LABEL_INFO
10
1.3235006667
20
1.1685286667
40
0.889
1
0 0 1 1 0 1
72
1
73
1
11
1.3235006667
21
1.1685286667
41
0.75
7
W0$127
0
TEXT
8
LABEL_ATTRIBUTE
10
1.3235006667
20
1.1685286667
40
0.889
1
Comment
72
1
73
1
11
1.3235006667
21
1.1685286667
41
0.75
7
W0$127
0
TEXT
8
ATTRIBUTE_04
10
1.3235006667
20
1.1685286667
40
0.889
1
 
72
1
73
2
11
1.3235006667
21
1.1685286667
41
0.75
7
W0$127
0
TEXT
8
PART_TYPE_BOT
10
1.3235006667
20
-0.1014713333
40
0.889
1
C0402
72
1
73
2
11
1.3235006667
21
-0.1014713333
41
0.75
7
W0$127
0
TEXT
8
PART_INFO
10
1.3235006667
20
-1.3714713333
40
0.889
1
000000
71
2
72
1
73
2
11
1.3235006667
21
-1.3714713333
41
0.75
7
W0$127
0
TEXT
8
PART_PTS
10
1.3235006667
20
-2.6414713333
40
0.889
1
1 2 
71
2
72
1
73
2
11
1.3235006667
21
-2.6414713333
41
0.75
7
W0$127
0
ENDBLK
0
BLOCK
2
PART_BOT_48
8
0
10
0
20
0
3
PART_BOT_48
70
64
0
INSERT
2
SYM_BOT_4
8
0
10
0
20
0
0
INSERT
2
PKG_1
8
0
10
0
20
0
41
-1
0
TEXT
8
LABEL_INFO
10
0
20
0
40
0.56
1
0 0 1 1 0 1
72
1
73
1
11
0
21
0
41
0.75
7
W0$127
0
TEXT
8
LABEL_ATTRIBUTE
10
0
20
0
40
0.56
1
Value
72
1
73
1
11
0
21
0
41
0.75
7
W0$127
0
TEXT
8
ATTRIBUTE_04
10
0
20
0
40
0.56
1
100NF
72
1
73
2
11
0
21
0
41
0.75
7
W0$127
0
TEXT
8
LABEL_INFO
10
0.25405
20
0
40
0.56
1
0 0 1 1 0 1
72
1
73
1
11
0.25405
21
0
41
0.75
7
W0$0381
0
TEXT
8
LABEL_ATTRIBUTE
10
0.25405
20
0
40
0.56
1
Ref.Des.
72
1
73
1
11
0.25405
21
0
41
0.75
7
W0$0381
0
TEXT
8
PART_NAME_04
10
0.25405
20
0
40
0.56
1
C67
72
1
73
2
11
0.25405
21
0
41
0.75
7
W0$0381
0
TEXT
8
LABEL_INFO
10
1.3235006667
20
1.1685286667
40
0.889
1
0 0 1 1 0 1
72
1
73
1
11
1.3235006667
21
1.1685286667
41
0.75
7
W0$127
0
TEXT
8
LABEL_ATTRIBUTE
10
1.3235006667
20
1.1685286667
40
0.889
1
Comment
72
1
73
1
11
1.3235006667
21
1.1685286667
41
0.75
7
W0$127
0
TEXT
8
ATTRIBUTE_04
10
1.3235006667
20
1.1685286667
40
0.889
1
 
72
1
73
2
11
1.3235006667
21
1.1685286667
41
0.75
7
W0$127
0
TEXT
8
PART_TYPE_BOT
10
1.3235006667
20
-0.1014713333
40
0.889
1
C0402
72
1
73
2
11
1.3235006667
21
-0.1014713333
41
0.75
7
W0$127
0
TEXT
8
PART_INFO
10
1.3235006667
20
-1.3714713333
40
0.889
1
000000
71
2
72
1
73
2
11
1.3235006667
21
-1.3714713333
41
0.75
7
W0$127
0
TEXT
8
PART_PTS
10
1.3235006667
20
-2.6414713333
40
0.889
1
1 2 
71
2
72
1
73
2
11
1.3235006667
21
-2.6414713333
41
0.75
7
W0$127
0
ENDBLK
0
BLOCK
2
PART_BOT_49
8
0
10
0
20
0
3
PART_BOT_49
70
64
0
INSERT
2
SYM_BOT_5
8
0
10
0
20
0
0
INSERT
2
PKG_2
8
0
10
0
20
0
41
-1
0
TEXT
8
LABEL_INFO
10
0
20
0
40
0.56
1
0 0 1 1 0 1
72
1
73
1
11
0
21
0
41
0.75
7
W0$127
0
TEXT
8
LABEL_ATTRIBUTE
10
0
20
0
40
0.56
1
Value
72
1
73
1
11
0
21
0
41
0.75
7
W0$127
0
TEXT
8
ATTRIBUTE_04
10
0
20
0
40
0.56
1
10UF
72
1
73
2
11
0
21
0
41
0.75
7
W0$127
0
TEXT
8
LABEL_INFO
10
-0.62
20
-0.27
40
0.56
1
0 0 0 0 0 1
41
0.75
7
W0$0381
0
TEXT
8
LABEL_ATTRIBUTE
10
-0.62
20
-0.27
40
0.56
1
Ref.Des.
41
0.75
7
W0$0381
0
TEXT
8
PART_NAME_04
10
-0.62
20
-0.27
40
0.56
1
C68
41
0.75
7
W0$0381
0
TEXT
8
LABEL_INFO
10
-1.7398993333
20
0.9051913333
40
0.889
1
0 0 0 0 0 1
41
0.75
7
W0$127
0
TEXT
8
LABEL_ATTRIBUTE
10
-1.7398993333
20
0.9051913333
40
0.889
1
Comment
41
0.75
7
W0$127
0
TEXT
8
ATTRIBUTE_04
10
-1.7398993333
20
0.9051913333
40
0.889
1
 
41
0.75
7
W0$127
0
TEXT
8
PART_TYPE_BOT
10
-1.7398993333
20
-0.3648086667
40
0.889
1
C0603
41
0.75
7
W0$127
0
TEXT
8
PART_INFO
10
-1.7398993333
20
-1.6348086667
40
0.889
1
000000
71
2
41
0.75
7
W0$127
0
TEXT
8
PART_PTS
10
-1.7398993333
20
-2.9048086667
40
0.889
1
1 2 
71
2
41
0.75
7
W0$127
0
ENDBLK
0
BLOCK
2
PART_BOT_50
8
0
10
0
20
0
3
PART_BOT_50
70
64
0
INSERT
2
SYM_BOT_4
8
0
10
0
20
0
0
INSERT
2
PKG_1
8
0
10
0
20
0
41
-1
0
TEXT
8
LABEL_INFO
10
0
20
0
40
0.56
1
0 0 1 1 0 1
72
1
73
1
11
0
21
0
41
0.75
7
W0$127
0
TEXT
8
LABEL_ATTRIBUTE
10
0
20
0
40
0.56
1
Value
72
1
73
1
11
0
21
0
41
0.75
7
W0$127
0
TEXT
8
ATTRIBUTE_04
10
0
20
0
40
0.56
1
100NF
72
1
73
2
11
0
21
0
41
0.75
7
W0$127
0
TEXT
8
LABEL_INFO
10
-0.0353333333
20
0.0363333333
40
0.56
1
0 0 1 1 0 1
72
1
73
1
11
-0.0353333333
21
0.0363333333
41
0.75
7
W0$0381
0
TEXT
8
LABEL_ATTRIBUTE
10
-0.0353333333
20
0.0363333333
40
0.56
1
Ref.Des.
72
1
73
1
11
-0.0353333333
21
0.0363333333
41
0.75
7
W0$0381
0
TEXT
8
PART_NAME_04
10
-0.0353333333
20
0.0363333333
40
0.56
1
C69
72
1
73
2
11
-0.0353333333
21
0.0363333333
41
0.75
7
W0$0381
0
TEXT
8
LABEL_INFO
10
1.3235006667
20
1.1685286667
40
0.889
1
0 0 1 1 0 1
72
1
73
1
11
1.3235006667
21
1.1685286667
41
0.75
7
W0$127
0
TEXT
8
LABEL_ATTRIBUTE
10
1.3235006667
20
1.1685286667
40
0.889
1
Comment
72
1
73
1
11
1.3235006667
21
1.1685286667
41
0.75
7
W0$127
0
TEXT
8
ATTRIBUTE_04
10
1.3235006667
20
1.1685286667
40
0.889
1
 
72
1
73
2
11
1.3235006667
21
1.1685286667
41
0.75
7
W0$127
0
TEXT
8
PART_TYPE_BOT
10
1.3235006667
20
-0.1014713333
40
0.889
1
C0402
72
1
73
2
11
1.3235006667
21
-0.1014713333
41
0.75
7
W0$127
0
TEXT
8
PART_INFO
10
1.3235006667
20
-1.3714713333
40
0.889
1
000000
71
2
72
1
73
2
11
1.3235006667
21
-1.3714713333
41
0.75
7
W0$127
0
TEXT
8
PART_PTS
10
1.3235006667
20
-2.6414713333
40
0.889
1
1 2 
71
2
72
1
73
2
11
1.3235006667
21
-2.6414713333
41
0.75
7
W0$127
0
ENDBLK
0
BLOCK
2
PART_BOT_51
8
0
10
0
20
0
3
PART_BOT_51
70
64
0
INSERT
2
SYM_BOT_4
8
0
10
0
20
0
0
INSERT
2
PKG_1
8
0
10
0
20
0
41
-1
0
TEXT
8
LABEL_INFO
10
0
20
0
40
0.56
1
0 0 1 1 0 1
72
1
73
1
11
0
21
0
41
0.75
7
W0$127
0
TEXT
8
LABEL_ATTRIBUTE
10
0
20
0
40
0.56
1
Value
72
1
73
1
11
0
21
0
41
0.75
7
W0$127
0
TEXT
8
ATTRIBUTE_04
10
0
20
0
40
0.56
1
0.1UF/10V
72
1
73
2
11
0
21
0
41
0.75
7
W0$127
0
TEXT
8
LABEL_INFO
10
-0.0353333333
20
0.0363333333
40
0.56
1
0 0 1 1 0 1
72
1
73
1
11
-0.0353333333
21
0.0363333333
41
0.75
7
W0$0381
0
TEXT
8
LABEL_ATTRIBUTE
10
-0.0353333333
20
0.0363333333
40
0.56
1
Ref.Des.
72
1
73
1
11
-0.0353333333
21
0.0363333333
41
0.75
7
W0$0381
0
TEXT
8
PART_NAME_04
10
-0.0353333333
20
0.0363333333
40
0.56
1
C62
72
1
73
2
11
-0.0353333333
21
0.0363333333
41
0.75
7
W0$0381
0
TEXT
8
LABEL_INFO
10
1.3235006667
20
1.1685286667
40
0.889
1
0 0 1 1 0 1
72
1
73
1
11
1.3235006667
21
1.1685286667
41
0.75
7
W0$127
0
TEXT
8
LABEL_ATTRIBUTE
10
1.3235006667
20
1.1685286667
40
0.889
1
Comment
72
1
73
1
11
1.3235006667
21
1.1685286667
41
0.75
7
W0$127
0
TEXT
8
ATTRIBUTE_04
10
1.3235006667
20
1.1685286667
40
0.889
1
 
72
1
73
2
11
1.3235006667
21
1.1685286667
41
0.75
7
W0$127
0
TEXT
8
PART_TYPE_BOT
10
1.3235006667
20
-0.1014713333
40
0.889
1
C0402
72
1
73
2
11
1.3235006667
21
-0.1014713333
41
0.75
7
W0$127
0
TEXT
8
PART_INFO
10
1.3235006667
20
-1.3714713333
40
0.889
1
000000
71
2
72
1
73
2
11
1.3235006667
21
-1.3714713333
41
0.75
7
W0$127
0
TEXT
8
PART_PTS
10
1.3235006667
20
-2.6414713333
40
0.889
1
1 2 
71
2
72
1
73
2
11
1.3235006667
21
-2.6414713333
41
0.75
7
W0$127
0
ENDBLK
0
BLOCK
2
PART_BOT_52
8
0
10
0
20
0
3
PART_BOT_52
70
64
0
INSERT
2
SYM_BOT_6
8
0
10
0
20
0
0
INSERT
2
PKG_3
8
0
10
0
20
0
41
-1
0
TEXT
8
LABEL_INFO
10
0
20
0
40
0.56
1
0 0 1 1 0 1
72
1
73
1
11
0
21
0
41
0.75
7
W0$127
0
TEXT
8
LABEL_ATTRIBUTE
10
0
20
0
40
0.56
1
Value
72
1
73
1
11
0
21
0
41
0.75
7
W0$127
0
TEXT
8
ATTRIBUTE_04
10
0
20
0
40
0.56
1
22UF
72
1
73
2
11
0
21
0
41
0.75
7
W0$127
0
TEXT
8
LABEL_INFO
10
-2.0012653333
20
1.1556933333
40
0.889
1
0 0 0 0 0 1
41
0.75
7
W0$127
0
TEXT
8
LABEL_ATTRIBUTE
10
-2.0012653333
20
1.1556933333
40
0.889
1
Comment
41
0.75
7
W0$127
0
TEXT
8
ATTRIBUTE_04
10
-2.0012653333
20
1.1556933333
40
0.889
1
 
41
0.75
7
W0$127
0
TEXT
8
LABEL_INFO
10
-0.7113333333
20
-0.077
40
0.56
1
0 0 0 0 0 1
41
0.75
7
W0$0381
0
TEXT
8
LABEL_ATTRIBUTE
10
-0.7113333333
20
-0.077
40
0.56
1
Ref.Des.
41
0.75
7
W0$0381
0
TEXT
8
PART_NAME_04
10
-0.7113333333
20
-0.077
40
0.56
1
C27
41
0.75
7
W0$0381
0
TEXT
8
PART_TYPE_BOT
10
-0.7113333333
20
-0.877
40
0.56
1
C0805
41
0.75
7
W0$0381
0
TEXT
8
PART_INFO
10
-0.7113333333
20
-1.677
40
0.56
1
000000
71
2
41
0.75
7
W0$0381
0
TEXT
8
PART_PTS
10
-0.7113333333
20
-2.477
40
0.56
1
1 2 
71
2
41
0.75
7
W0$0381
0
ENDBLK
0
BLOCK
2
PART_BOT_53
8
0
10
0
20
0
3
PART_BOT_53
70
64
0
INSERT
2
SYM_BOT_6
8
0
10
0
20
0
0
INSERT
2
PKG_3
8
0
10
0
20
0
41
-1
0
TEXT
8
LABEL_INFO
10
0
20
0
40
0.56
1
0 0 1 1 0 1
72
1
73
1
11
0
21
0
41
0.75
7
W0$127
0
TEXT
8
LABEL_ATTRIBUTE
10
0
20
0
40
0.56
1
Value
72
1
73
1
11
0
21
0
41
0.75
7
W0$127
0
TEXT
8
ATTRIBUTE_04
10
0
20
0
40
0.56
1
22UF
72
1
73
2
11
0
21
0
41
0.75
7
W0$127
0
TEXT
8
LABEL_INFO
10
-2.0012653333
20
1.1556933333
40
0.889
1
0 0 0 0 0 1
41
0.75
7
W0$127
0
TEXT
8
LABEL_ATTRIBUTE
10
-2.0012653333
20
1.1556933333
40
0.889
1
Comment
41
0.75
7
W0$127
0
TEXT
8
ATTRIBUTE_04
10
-2.0012653333
20
1.1556933333
40
0.889
1
 
41
0.75
7
W0$127
0
TEXT
8
LABEL_INFO
10
-0.7113333333
20
-0.077
40
0.56
1
0 0 0 0 0 1
41
0.75
7
W0$0381
0
TEXT
8
LABEL_ATTRIBUTE
10
-0.7113333333
20
-0.077
40
0.56
1
Ref.Des.
41
0.75
7
W0$0381
0
TEXT
8
PART_NAME_04
10
-0.7113333333
20
-0.077
40
0.56
1
C28
41
0.75
7
W0$0381
0
TEXT
8
PART_TYPE_BOT
10
-0.7113333333
20
-0.877
40
0.56
1
C0805
41
0.75
7
W0$0381
0
TEXT
8
PART_INFO
10
-0.7113333333
20
-1.677
40
0.56
1
000000
71
2
41
0.75
7
W0$0381
0
TEXT
8
PART_PTS
10
-0.7113333333
20
-2.477
40
0.56
1
1 2 
71
2
41
0.75
7
W0$0381
0
ENDBLK
0
BLOCK
2
PART_BOT_54
8
0
10
0
20
0
3
PART_BOT_54
70
64
0
INSERT
2
SYM_BOT_5
8
0
10
0
20
0
0
INSERT
2
PKG_2
8
0
10
0
20
0
41
-1
0
TEXT
8
LABEL_INFO
10
0
20
0
40
0.56
1
0 0 1 1 0 1
72
1
73
1
11
0
21
0
41
0.75
7
W0$127
0
TEXT
8
LABEL_ATTRIBUTE
10
0
20
0
40
0.56
1
Value
72
1
73
1
11
0
21
0
41
0.75
7
W0$127
0
TEXT
8
ATTRIBUTE_04
10
0
20
0
40
0.56
1
10UF
72
1
73
2
11
0
21
0
41
0.75
7
W0$127
0
TEXT
8
LABEL_INFO
10
-0.6493333333
20
-0.1346666667
40
0.56
1
0 0 0 0 0 1
41
0.75
7
W0$0381
0
TEXT
8
LABEL_ATTRIBUTE
10
-0.6493333333
20
-0.1346666667
40
0.56
1
Ref.Des.
41
0.75
7
W0$0381
0
TEXT
8
PART_NAME_04
10
-0.6493333333
20
-0.1346666667
40
0.56
1
C29
41
0.75
7
W0$0381
0
TEXT
8
LABEL_INFO
10
-1.7398993333
20
0.9051913333
40
0.889
1
0 0 0 0 0 1
41
0.75
7
W0$127
0
TEXT
8
LABEL_ATTRIBUTE
10
-1.7398993333
20
0.9051913333
40
0.889
1
Comment
41
0.75
7
W0$127
0
TEXT
8
ATTRIBUTE_04
10
-1.7398993333
20
0.9051913333
40
0.889
1
 
41
0.75
7
W0$127
0
TEXT
8
PART_TYPE_BOT
10
-1.7398993333
20
-0.3648086667
40
0.889
1
C0603
41
0.75
7
W0$127
0
TEXT
8
PART_INFO
10
-1.7398993333
20
-1.6348086667
40
0.889
1
000000
71
2
41
0.75
7
W0$127
0
TEXT
8
PART_PTS
10
-1.7398993333
20
-2.9048086667
40
0.889
1
1 2 
71
2
41
0.75
7
W0$127
0
ENDBLK
0
BLOCK
2
PART_BOT_55
8
0
10
0
20
0
3
PART_BOT_55
70
64
0
INSERT
2
SYM_BOT_4
8
0
10
0
20
0
0
INSERT
2
PKG_1
8
0
10
0
20
0
41
-1
0
TEXT
8
LABEL_INFO
10
0
20
0
40
0.56
1
0 0 1 1 0 1
72
1
73
1
11
0
21
0
41
0.75
7
W0$127
0
TEXT
8
LABEL_ATTRIBUTE
10
0
20
0
40
0.56
1
Value
72
1
73
1
11
0
21
0
41
0.75
7
W0$127
0
TEXT
8
ATTRIBUTE_04
10
0
20
0
40
0.56
1
100NF
72
1
73
2
11
0
21
0
41
0.75
7
W0$127
0
TEXT
8
LABEL_INFO
10
-0.0353333333
20
0.0363333333
40
0.56
1
0 0 1 1 0 1
72
1
73
1
11
-0.0353333333
21
0.0363333333
41
0.75
7
W0$0381
0
TEXT
8
LABEL_ATTRIBUTE
10
-0.0353333333
20
0.0363333333
40
0.56
1
Ref.Des.
72
1
73
1
11
-0.0353333333
21
0.0363333333
41
0.75
7
W0$0381
0
TEXT
8
PART_NAME_04
10
-0.0353333333
20
0.0363333333
40
0.56
1
C30
72
1
73
2
11
-0.0353333333
21
0.0363333333
41
0.75
7
W0$0381
0
TEXT
8
LABEL_INFO
10
1.3235006667
20
1.1685286667
40
0.889
1
0 0 1 1 0 1
72
1
73
1
11
1.3235006667
21
1.1685286667
41
0.75
7
W0$127
0
TEXT
8
LABEL_ATTRIBUTE
10
1.3235006667
20
1.1685286667
40
0.889
1
Comment
72
1
73
1
11
1.3235006667
21
1.1685286667
41
0.75
7
W0$127
0
TEXT
8
ATTRIBUTE_04
10
1.3235006667
20
1.1685286667
40
0.889
1
 
72
1
73
2
11
1.3235006667
21
1.1685286667
41
0.75
7
W0$127
0
TEXT
8
PART_TYPE_BOT
10
1.3235006667
20
-0.1014713333
40
0.889
1
C0402
72
1
73
2
11
1.3235006667
21
-0.1014713333
41
0.75
7
W0$127
0
TEXT
8
PART_INFO
10
1.3235006667
20
-1.3714713333
40
0.889
1
000000
71
2
72
1
73
2
11
1.3235006667
21
-1.3714713333
41
0.75
7
W0$127
0
TEXT
8
PART_PTS
10
1.3235006667
20
-2.6414713333
40
0.889
1
1 2 
71
2
72
1
73
2
11
1.3235006667
21
-2.6414713333
41
0.75
7
W0$127
0
ENDBLK
0
BLOCK
2
PART_BOT_56
8
0
10
0
20
0
3
PART_BOT_56
70
64
0
INSERT
2
SYM_BOT_4
8
0
10
0
20
0
0
INSERT
2
PKG_1
8
0
10
0
20
0
41
-1
0
TEXT
8
LABEL_INFO
10
0
20
0
40
0.56
1
0 0 1 1 0 1
72
1
73
1
11
0
21
0
41
0.75
7
W0$127
0
TEXT
8
LABEL_ATTRIBUTE
10
0
20
0
40
0.56
1
Value
72
1
73
1
11
0
21
0
41
0.75
7
W0$127
0
TEXT
8
ATTRIBUTE_04
10
0
20
0
40
0.56
1
100NF
72
1
73
2
11
0
21
0
41
0.75
7
W0$127
0
TEXT
8
LABEL_INFO
10
-0.0353333333
20
0.0363333333
40
0.56
1
0 0 1 1 0 1
72
1
73
1
11
-0.0353333333
21
0.0363333333
41
0.75
7
W0$0381
0
TEXT
8
LABEL_ATTRIBUTE
10
-0.0353333333
20
0.0363333333
40
0.56
1
Ref.Des.
72
1
73
1
11
-0.0353333333
21
0.0363333333
41
0.75
7
W0$0381
0
TEXT
8
PART_NAME_04
10
-0.0353333333
20
0.0363333333
40
0.56
1
C31
72
1
73
2
11
-0.0353333333
21
0.0363333333
41
0.75
7
W0$0381
0
TEXT
8
LABEL_INFO
10
1.3235006667
20
1.1685286667
40
0.889
1
0 0 1 1 0 1
72
1
73
1
11
1.3235006667
21
1.1685286667
41
0.75
7
W0$127
0
TEXT
8
LABEL_ATTRIBUTE
10
1.3235006667
20
1.1685286667
40
0.889
1
Comment
72
1
73
1
11
1.3235006667
21
1.1685286667
41
0.75
7
W0$127
0
TEXT
8
ATTRIBUTE_04
10
1.3235006667
20
1.1685286667
40
0.889
1
 
72
1
73
2
11
1.3235006667
21
1.1685286667
41
0.75
7
W0$127
0
TEXT
8
PART_TYPE_BOT
10
1.3235006667
20
-0.1014713333
40
0.889
1
C0402
72
1
73
2
11
1.3235006667
21
-0.1014713333
41
0.75
7
W0$127
0
TEXT
8
PART_INFO
10
1.3235006667
20
-1.3714713333
40
0.889
1
000000
71
2
72
1
73
2
11
1.3235006667
21
-1.3714713333
41
0.75
7
W0$127
0
TEXT
8
PART_PTS
10
1.3235006667
20
-2.6414713333
40
0.889
1
1 2 
71
2
72
1
73
2
11
1.3235006667
21
-2.6414713333
41
0.75
7
W0$127
0
ENDBLK
0
BLOCK
2
PART_BOT_57
8
0
10
0
20
0
3
PART_BOT_57
70
64
0
INSERT
2
SYM_BOT_7
8
0
10
0
20
0
0
INSERT
2
PKG_4
8
0
10
0
20
0
41
-1
0
TEXT
8
LABEL_INFO
10
0
20
0
40
0.56
1
0 0 1 1 0 1
72
1
73
1
11
0
21
0
41
0.75
7
W0$127
0
TEXT
8
LABEL_ATTRIBUTE
10
0
20
0
40
0.56
1
Value
72
1
73
1
11
0
21
0
41
0.75
7
W0$127
0
TEXT
8
ATTRIBUTE_04
10
0
20
0
40
0.56
1
100NF
72
1
73
2
11
0
21
0
41
0.75
7
W0$127
0
TEXT
8
LABEL_INFO
10
-0.5588
20
-0.7112
40
0.56
1
0 0 0 0 0 1
41
0.75
7
W0$0381
0
TEXT
8
LABEL_ATTRIBUTE
10
-0.5588
20
-0.7112
40
0.56
1
Ref.Des.
41
0.75
7
W0$0381
0
TEXT
8
PART_NAME_04
10
-0.5588
20
-0.7112
40
0.56
1
C19
41
0.75
7
W0$0381
0
TEXT
8
LABEL_INFO
10
-3.6542446667
20
0.6164233333
40
0.889
1
0 0 0 0 0 1
41
0.75
7
W0$127
0
TEXT
8
LABEL_ATTRIBUTE
10
-3.6542446667
20
0.6164233333
40
0.889
1
Comment
41
0.75
7
W0$127
0
TEXT
8
ATTRIBUTE_129
10
-3.6542446667
20
0.6164233333
40
0.889
1
 
41
0.75
7
W0$127
0
TEXT
8
PART_TYPE_BOT
10
-3.6542446667
20
-0.6535766667
40
0.889
1
C0201
41
0.75
7
W0$127
0
TEXT
8
PART_INFO
10
-3.6542446667
20
-1.9235766667
40
0.889
1
000000
71
2
41
0.75
7
W0$127
0
TEXT
8
PART_PTS
10
-3.6542446667
20
-3.1935766667
40
0.889
1
1 2 
71
2
41
0.75
7
W0$127
0
ENDBLK
0
BLOCK
2
PART_BOT_58
8
0
10
0
20
0
3
PART_BOT_58
70
64
0
INSERT
2
SYM_BOT_7
8
0
10
0
20
0
0
INSERT
2
PKG_4
8
0
10
0
20
0
41
-1
0
TEXT
8
LABEL_INFO
10
0
20
0
40
0.56
1
0 0 1 1 0 1
72
1
73
1
11
0
21
0
41
0.75
7
W0$127
0
TEXT
8
LABEL_ATTRIBUTE
10
0
20
0
40
0.56
1
Value
72
1
73
1
11
0
21
0
41
0.75
7
W0$127
0
TEXT
8
ATTRIBUTE_04
10
0
20
0
40
0.56
1
100NF
72
1
73
2
11
0
21
0
41
0.75
7
W0$127
0
TEXT
8
LABEL_INFO
10
-0.762
20
-0.6858
40
0.56
1
0 0 0 0 0 1
41
0.75
7
W0$0381
0
TEXT
8
LABEL_ATTRIBUTE
10
-0.762
20
-0.6858
40
0.56
1
Ref.Des.
41
0.75
7
W0$0381
0
TEXT
8
PART_NAME_04
10
-0.762
20
-0.6858
40
0.56
1
C20
41
0.75
7
W0$0381
0
TEXT
8
LABEL_INFO
10
-3.6542446667
20
0.6164233333
40
0.889
1
0 0 0 0 0 1
41
0.75
7
W0$127
0
TEXT
8
LABEL_ATTRIBUTE
10
-3.6542446667
20
0.6164233333
40
0.889
1
Comment
41
0.75
7
W0$127
0
TEXT
8
ATTRIBUTE_129
10
-3.6542446667
20
0.6164233333
40
0.889
1
 
41
0.75
7
W0$127
0
TEXT
8
PART_TYPE_BOT
10
-3.6542446667
20
-0.6535766667
40
0.889
1
C0201
41
0.75
7
W0$127
0
TEXT
8
PART_INFO
10
-3.6542446667
20
-1.9235766667
40
0.889
1
000000
71
2
41
0.75
7
W0$127
0
TEXT
8
PART_PTS
10
-3.6542446667
20
-3.1935766667
40
0.889
1
1 2 
71
2
41
0.75
7
W0$127
0
ENDBLK
0
BLOCK
2
PART_BOT_59
8
0
10
0
20
0
3
PART_BOT_59
70
64
0
INSERT
2
SYM_BOT_7
8
0
10
0
20
0
0
INSERT
2
PKG_4
8
0
10
0
20
0
41
-1
0
TEXT
8
LABEL_INFO
10
0
20
0
40
0.56
1
0 0 1 1 0 1
72
1
73
1
11
0
21
0
41
0.75
7
W0$127
0
TEXT
8
LABEL_ATTRIBUTE
10
0
20
0
40
0.56
1
Value
72
1
73
1
11
0
21
0
41
0.75
7
W0$127
0
TEXT
8
ATTRIBUTE_04
10
0
20
0
40
0.56
1
100NF
72
1
73
2
11
0
21
0
41
0.75
7
W0$127
0
TEXT
8
LABEL_INFO
10
1.684
20
0.5206
40
0.56
1
0 324000000 0 0 0 1
50
180
41
0.75
7
W0$0381
0
TEXT
8
LABEL_ATTRIBUTE
10
1.684
20
0.5206
40
0.56
1
Ref.Des.
50
180
41
0.75
7
W0$0381
0
TEXT
8
PART_NAME_04
10
1.684
20
0.5206
40
0.56
1
C18
50
180
41
0.75
7
W0$0381
0
TEXT
8
LABEL_INFO
10
-3.6542446667
20
0.6164233333
40
0.889
1
0 0 0 0 0 1
41
0.75
7
W0$127
0
TEXT
8
LABEL_ATTRIBUTE
10
-3.6542446667
20
0.6164233333
40
0.889
1
Comment
41
0.75
7
W0$127
0
TEXT
8
ATTRIBUTE_129
10
-3.6542446667
20
0.6164233333
40
0.889
1
 
41
0.75
7
W0$127
0
TEXT
8
PART_TYPE_BOT
10
-3.6542446667
20
-0.6535766667
40
0.889
1
C0201
41
0.75
7
W0$127
0
TEXT
8
PART_INFO
10
-3.6542446667
20
-1.9235766667
40
0.889
1
000000
71
2
41
0.75
7
W0$127
0
TEXT
8
PART_PTS
10
-3.6542446667
20
-3.1935766667
40
0.889
1
1 2 
71
2
41
0.75
7
W0$127
0
ENDBLK
0
BLOCK
2
PART_BOT_60
8
0
10
0
20
0
3
PART_BOT_60
70
64
0
INSERT
2
SYM_BOT_7
8
0
10
0
20
0
0
INSERT
2
PKG_4
8
0
10
0
20
0
41
-1
0
TEXT
8
LABEL_INFO
10
0
20
0
40
0.56
1
0 0 1 1 0 1
72
1
73
1
11
0
21
0
41
0.75
7
W0$127
0
TEXT
8
LABEL_ATTRIBUTE
10
0
20
0
40
0.56
1
Value
72
1
73
1
11
0
21
0
41
0.75
7
W0$127
0
TEXT
8
ATTRIBUTE_04
10
0
20
0
40
0.56
1
100NF
72
1
73
2
11
0
21
0
41
0.75
7
W0$127
0
TEXT
8
LABEL_INFO
10
1.604
20
0.174
40
0.56
1
0 324000000 0 0 0 1
50
180
41
0.75
7
W0$0381
0
TEXT
8
LABEL_ATTRIBUTE
10
1.604
20
0.174
40
0.56
1
Ref.Des.
50
180
41
0.75
7
W0$0381
0
TEXT
8
PART_NAME_04
10
1.604
20
0.174
40
0.56
1
C17
50
180
41
0.75
7
W0$0381
0
TEXT
8
LABEL_INFO
10
-3.6542446667
20
0.6164233333
40
0.889
1
0 0 0 0 0 1
41
0.75
7
W0$127
0
TEXT
8
LABEL_ATTRIBUTE
10
-3.6542446667
20
0.6164233333
40
0.889
1
Comment
41
0.75
7
W0$127
0
TEXT
8
ATTRIBUTE_129
10
-3.6542446667
20
0.6164233333
40
0.889
1
 
41
0.75
7
W0$127
0
TEXT
8
PART_TYPE_BOT
10
-3.6542446667
20
-0.6535766667
40
0.889
1
C0201
41
0.75
7
W0$127
0
TEXT
8
PART_INFO
10
-3.6542446667
20
-1.9235766667
40
0.889
1
000000
71
2
41
0.75
7
W0$127
0
TEXT
8
PART_PTS
10
-3.6542446667
20
-3.1935766667
40
0.889
1
1 2 
71
2
41
0.75
7
W0$127
0
ENDBLK
0
BLOCK
2
PART_BOT_61
8
0
10
0
20
0
3
PART_BOT_61
70
64
0
INSERT
2
SYM_BOT_7
8
0
10
0
20
0
0
INSERT
2
PKG_4
8
0
10
0
20
0
41
-1
0
TEXT
8
LABEL_INFO
10
0
20
0
40
0.56
1
0 0 1 1 0 1
72
1
73
1
11
0
21
0
41
0.75
7
W0$127
0
TEXT
8
LABEL_ATTRIBUTE
10
0
20
0
40
0.56
1
Value
72
1
73
1
11
0
21
0
41
0.75
7
W0$127
0
TEXT
8
ATTRIBUTE_04
10
0
20
0
40
0.56
1
100NF
72
1
73
2
11
0
21
0
41
0.75
7
W0$127
0
TEXT
8
LABEL_INFO
10
1.674
20
0.3932
40
0.56
1
0 324000000 0 0 0 1
50
180
41
0.75
7
W0$0381
0
TEXT
8
LABEL_ATTRIBUTE
10
1.674
20
0.3932
40
0.56
1
Ref.Des.
50
180
41
0.75
7
W0$0381
0
TEXT
8
PART_NAME_04
10
1.674
20
0.3932
40
0.56
1
C16
50
180
41
0.75
7
W0$0381
0
TEXT
8
LABEL_INFO
10
-3.6542446667
20
0.6164233333
40
0.889
1
0 0 0 0 0 1
41
0.75
7
W0$127
0
TEXT
8
LABEL_ATTRIBUTE
10
-3.6542446667
20
0.6164233333
40
0.889
1
Comment
41
0.75
7
W0$127
0
TEXT
8
ATTRIBUTE_129
10
-3.6542446667
20
0.6164233333
40
0.889
1
 
41
0.75
7
W0$127
0
TEXT
8
PART_TYPE_BOT
10
-3.6542446667
20
-0.6535766667
40
0.889
1
C0201
41
0.75
7
W0$127
0
TEXT
8
PART_INFO
10
-3.6542446667
20
-1.9235766667
40
0.889
1
000000
71
2
41
0.75
7
W0$127
0
TEXT
8
PART_PTS
10
-3.6542446667
20
-3.1935766667
40
0.889
1
1 2 
71
2
41
0.75
7
W0$127
0
ENDBLK
0
BLOCK
2
PART_BOT_62
8
0
10
0
20
0
3
PART_BOT_62
70
64
0
INSERT
2
SYM_BOT_7
8
0
10
0
20
0
0
INSERT
2
PKG_4
8
0
10
0
20
0
41
-1
0
TEXT
8
LABEL_INFO
10
0
20
0
40
0.56
1
0 0 1 1 0 1
72
1
73
1
11
0
21
0
41
0.75
7
W0$127
0
TEXT
8
LABEL_ATTRIBUTE
10
0
20
0
40
0.56
1
Value
72
1
73
1
11
0
21
0
41
0.75
7
W0$127
0
TEXT
8
ATTRIBUTE_04
10
0
20
0
40
0.56
1
100NF
72
1
73
2
11
0
21
0
41
0.75
7
W0$127
0
TEXT
8
LABEL_INFO
10
1.684
20
0.1366
40
0.56
1
0 324000000 0 0 0 1
50
180
41
0.75
7
W0$0381
0
TEXT
8
LABEL_ATTRIBUTE
10
1.684
20
0.1366
40
0.56
1
Ref.Des.
50
180
41
0.75
7
W0$0381
0
TEXT
8
PART_NAME_04
10
1.684
20
0.1366
40
0.56
1
C15
50
180
41
0.75
7
W0$0381
0
TEXT
8
LABEL_INFO
10
-3.6542446667
20
0.6164233333
40
0.889
1
0 0 0 0 0 1
41
0.75
7
W0$127
0
TEXT
8
LABEL_ATTRIBUTE
10
-3.6542446667
20
0.6164233333
40
0.889
1
Comment
41
0.75
7
W0$127
0
TEXT
8
ATTRIBUTE_129
10
-3.6542446667
20
0.6164233333
40
0.889
1
 
41
0.75
7
W0$127
0
TEXT
8
PART_TYPE_BOT
10
-3.6542446667
20
-0.6535766667
40
0.889
1
C0201
41
0.75
7
W0$127
0
TEXT
8
PART_INFO
10
-3.6542446667
20
-1.9235766667
40
0.889
1
000000
71
2
41
0.75
7
W0$127
0
TEXT
8
PART_PTS
10
-3.6542446667
20
-3.1935766667
40
0.889
1
1 2 
71
2
41
0.75
7
W0$127
0
ENDBLK
0
BLOCK
2
PART_BOT_63
8
0
10
0
20
0
3
PART_BOT_63
70
64
0
INSERT
2
SYM_BOT_7
8
0
10
0
20
0
0
INSERT
2
PKG_4
8
0
10
0
20
0
41
-1
0
TEXT
8
LABEL_INFO
10
0
20
0
40
0.56
1
0 0 1 1 0 1
72
1
73
1
11
0
21
0
41
0.75
7
W0$127
0
TEXT
8
LABEL_ATTRIBUTE
10
0
20
0
40
0.56
1
Value
72
1
73
1
11
0
21
0
41
0.75
7
W0$127
0
TEXT
8
ATTRIBUTE_04
10
0
20
0
40
0.56
1
100NF
72
1
73
2
11
0
21
0
41
0.75
7
W0$127
0
TEXT
8
LABEL_INFO
10
-0.4036
20
0.4084
40
0.56
1
0 0 0 0 0 1
41
0.75
7
W0$0381
0
TEXT
8
LABEL_ATTRIBUTE
10
-0.4036
20
0.4084
40
0.56
1
Ref.Des.
41
0.75
7
W0$0381
0
TEXT
8
PART_NAME_04
10
-0.4036
20
0.4084
40
0.56
1
C14
41
0.75
7
W0$0381
0
TEXT
8
LABEL_INFO
10
-3.6542446667
20
0.6164233333
40
0.889
1
0 0 0 0 0 1
41
0.75
7
W0$127
0
TEXT
8
LABEL_ATTRIBUTE
10
-3.6542446667
20
0.6164233333
40
0.889
1
Comment
41
0.75
7
W0$127
0
TEXT
8
ATTRIBUTE_129
10
-3.6542446667
20
0.6164233333
40
0.889
1
 
41
0.75
7
W0$127
0
TEXT
8
PART_TYPE_BOT
10
-3.6542446667
20
-0.6535766667
40
0.889
1
C0201
41
0.75
7
W0$127
0
TEXT
8
PART_INFO
10
-3.6542446667
20
-1.9235766667
40
0.889
1
000000
71
2
41
0.75
7
W0$127
0
TEXT
8
PART_PTS
10
-3.6542446667
20
-3.1935766667
40
0.889
1
1 2 
71
2
41
0.75
7
W0$127
0
ENDBLK
0
BLOCK
2
PART_BOT_64
8
0
10
0
20
0
3
PART_BOT_64
70
64
0
INSERT
2
SYM_BOT_7
8
0
10
0
20
0
0
INSERT
2
PKG_4
8
0
10
0
20
0
41
-1
0
TEXT
8
LABEL_INFO
10
0
20
0
40
0.56
1
0 0 1 1 0 1
72
1
73
1
11
0
21
0
41
0.75
7
W0$127
0
TEXT
8
LABEL_ATTRIBUTE
10
0
20
0
40
0.56
1
Value
72
1
73
1
11
0
21
0
41
0.75
7
W0$127
0
TEXT
8
ATTRIBUTE_04
10
0
20
0
40
0.56
1
100NF
72
1
73
2
11
0
21
0
41
0.75
7
W0$127
0
TEXT
8
LABEL_INFO
10
-0.6344
20
0.4684
40
0.56
1
0 0 0 0 0 1
41
0.75
7
W0$0381
0
TEXT
8
LABEL_ATTRIBUTE
10
-0.6344
20
0.4684
40
0.56
1
Ref.Des.
41
0.75
7
W0$0381
0
TEXT
8
PART_NAME_04
10
-0.6344
20
0.4684
40
0.56
1
C13
41
0.75
7
W0$0381
0
TEXT
8
LABEL_INFO
10
-3.6542446667
20
0.6164233333
40
0.889
1
0 0 0 0 0 1
41
0.75
7
W0$127
0
TEXT
8
LABEL_ATTRIBUTE
10
-3.6542446667
20
0.6164233333
40
0.889
1
Comment
41
0.75
7
W0$127
0
TEXT
8
ATTRIBUTE_129
10
-3.6542446667
20
0.6164233333
40
0.889
1
 
41
0.75
7
W0$127
0
TEXT
8
PART_TYPE_BOT
10
-3.6542446667
20
-0.6535766667
40
0.889
1
C0201
41
0.75
7
W0$127
0
TEXT
8
PART_INFO
10
-3.6542446667
20
-1.9235766667
40
0.889
1
000000
71
2
41
0.75
7
W0$127
0
TEXT
8
PART_PTS
10
-3.6542446667
20
-3.1935766667
40
0.889
1
1 2 
71
2
41
0.75
7
W0$127
0
ENDBLK
0
BLOCK
2
PART_BOT_74
8
0
10
0
20
0
3
PART_BOT_74
70
64
0
INSERT
2
SYM_BOT_4
8
0
10
0
20
0
0
INSERT
2
PKG_1
8
0
10
0
20
0
41
-1
0
TEXT
8
LABEL_INFO
10
0
20
0
40
0.56
1
0 0 1 1 0 1
72
1
73
1
11
0
21
0
41
0.75
7
W0$127
0
TEXT
8
LABEL_ATTRIBUTE
10
0
20
0
40
0.56
1
Value
72
1
73
1
11
0
21
0
41
0.75
7
W0$127
0
TEXT
8
ATTRIBUTE_04
10
0
20
0
40
0.56
1
100NF
72
1
73
2
11
0
21
0
41
0.75
7
W0$127
0
TEXT
8
LABEL_INFO
10
-0.0353333333
20
0.0363333333
40
0.56
1
0 0 1 1 0 1
72
1
73
1
11
-0.0353333333
21
0.0363333333
41
0.75
7
W0$0381
0
TEXT
8
LABEL_ATTRIBUTE
10
-0.0353333333
20
0.0363333333
40
0.56
1
Ref.Des.
72
1
73
1
11
-0.0353333333
21
0.0363333333
41
0.75
7
W0$0381
0
TEXT
8
PART_NAME_04
10
-0.0353333333
20
0.0363333333
40
0.56
1
C72
72
1
73
2
11
-0.0353333333
21
0.0363333333
41
0.75
7
W0$0381
0
TEXT
8
LABEL_INFO
10
1.3235006667
20
1.1685286667
40
0.889
1
0 0 1 1 0 1
72
1
73
1
11
1.3235006667
21
1.1685286667
41
0.75
7
W0$127
0
TEXT
8
LABEL_ATTRIBUTE
10
1.3235006667
20
1.1685286667
40
0.889
1
Comment
72
1
73
1
11
1.3235006667
21
1.1685286667
41
0.75
7
W0$127
0
TEXT
8
ATTRIBUTE_04
10
1.3235006667
20
1.1685286667
40
0.889
1
 
72
1
73
2
11
1.3235006667
21
1.1685286667
41
0.75
7
W0$127
0
TEXT
8
PART_TYPE_BOT
10
1.3235006667
20
-0.1014713333
40
0.889
1
C0402
72
1
73
2
11
1.3235006667
21
-0.1014713333
41
0.75
7
W0$127
0
TEXT
8
PART_INFO
10
1.3235006667
20
-1.3714713333
40
0.889
1
000000
71
2
72
1
73
2
11
1.3235006667
21
-1.3714713333
41
0.75
7
W0$127
0
TEXT
8
PART_PTS
10
1.3235006667
20
-2.6414713333
40
0.889
1
1 2 
71
2
72
1
73
2
11
1.3235006667
21
-2.6414713333
41
0.75
7
W0$127
0
ENDBLK
0
BLOCK
2
PART_BOT_75
8
0
10
0
20
0
3
PART_BOT_75
70
64
0
INSERT
2
SYM_BOT_4
8
0
10
0
20
0
0
INSERT
2
PKG_1
8
0
10
0
20
0
41
-1
0
TEXT
8
LABEL_INFO
10
0
20
0
40
0.56
1
0 0 1 1 0 1
72
1
73
1
11
0
21
0
41
0.75
7
W0$127
0
TEXT
8
LABEL_ATTRIBUTE
10
0
20
0
40
0.56
1
Value
72
1
73
1
11
0
21
0
41
0.75
7
W0$127
0
TEXT
8
ATTRIBUTE_04
10
0
20
0
40
0.56
1
100NF
72
1
73
2
11
0
21
0
41
0.75
7
W0$127
0
TEXT
8
LABEL_INFO
10
-0.0353333333
20
0.0363333333
40
0.56
1
0 0 1 1 0 1
72
1
73
1
11
-0.0353333333
21
0.0363333333
41
0.75
7
W0$0381
0
TEXT
8
LABEL_ATTRIBUTE
10
-0.0353333333
20
0.0363333333
40
0.56
1
Ref.Des.
72
1
73
1
11
-0.0353333333
21
0.0363333333
41
0.75
7
W0$0381
0
TEXT
8
PART_NAME_04
10
-0.0353333333
20
0.0363333333
40
0.56
1
C82
72
1
73
2
11
-0.0353333333
21
0.0363333333
41
0.75
7
W0$0381
0
TEXT
8
LABEL_INFO
10
1.3235006667
20
1.1685286667
40
0.889
1
0 0 1 1 0 1
72
1
73
1
11
1.3235006667
21
1.1685286667
41
0.75
7
W0$127
0
TEXT
8
LABEL_ATTRIBUTE
10
1.3235006667
20
1.1685286667
40
0.889
1
Comment
72
1
73
1
11
1.3235006667
21
1.1685286667
41
0.75
7
W0$127
0
TEXT
8
ATTRIBUTE_04
10
1.3235006667
20
1.1685286667
40
0.889
1
 
72
1
73
2
11
1.3235006667
21
1.1685286667
41
0.75
7
W0$127
0
TEXT
8
PART_TYPE_BOT
10
1.3235006667
20
-0.1014713333
40
0.889
1
C0402
72
1
73
2
11
1.3235006667
21
-0.1014713333
41
0.75
7
W0$127
0
TEXT
8
PART_INFO
10
1.3235006667
20
-1.3714713333
40
0.889
1
000000
71
2
72
1
73
2
11
1.3235006667
21
-1.3714713333
41
0.75
7
W0$127
0
TEXT
8
PART_PTS
10
1.3235006667
20
-2.6414713333
40
0.889
1
1 2 
71
2
72
1
73
2
11
1.3235006667
21
-2.6414713333
41
0.75
7
W0$127
0
ENDBLK
0
BLOCK
2
PART_BOT_76
8
0
10
0
20
0
3
PART_BOT_76
70
64
0
INSERT
2
SYM_BOT_5
8
0
10
0
20
0
0
INSERT
2
PKG_2
8
0
10
0
20
0
41
-1
0
TEXT
8
LABEL_INFO
10
0
20
0
40
0.56
1
0 0 1 1 0 1
72
1
73
1
11
0
21
0
41
0.75
7
W0$127
0
TEXT
8
LABEL_ATTRIBUTE
10
0
20
0
40
0.56
1
Value
72
1
73
1
11
0
21
0
41
0.75
7
W0$127
0
TEXT
8
ATTRIBUTE_04
10
0
20
0
40
0.56
1
4.7UF
72
1
73
2
11
0
21
0
41
0.75
7
W0$127
0
TEXT
8
LABEL_INFO
10
-0.6493333333
20
-0.1346666667
40
0.56
1
0 0 0 0 0 1
41
0.75
7
W0$0381
0
TEXT
8
LABEL_ATTRIBUTE
10
-0.6493333333
20
-0.1346666667
40
0.56
1
Ref.Des.
41
0.75
7
W0$0381
0
TEXT
8
PART_NAME_04
10
-0.6493333333
20
-0.1346666667
40
0.56
1
C80
41
0.75
7
W0$0381
0
TEXT
8
LABEL_INFO
10
-1.7398993333
20
0.9051913333
40
0.889
1
0 0 0 0 0 1
41
0.75
7
W0$127
0
TEXT
8
LABEL_ATTRIBUTE
10
-1.7398993333
20
0.9051913333
40
0.889
1
Comment
41
0.75
7
W0$127
0
TEXT
8
ATTRIBUTE_04
10
-1.7398993333
20
0.9051913333
40
0.889
1
 
41
0.75
7
W0$127
0
TEXT
8
PART_TYPE_BOT
10
-1.7398993333
20
-0.3648086667
40
0.889
1
C0603
41
0.75
7
W0$127
0
TEXT
8
PART_INFO
10
-1.7398993333
20
-1.6348086667
40
0.889
1
000000
71
2
41
0.75
7
W0$127
0
TEXT
8
PART_PTS
10
-1.7398993333
20
-2.9048086667
40
0.889
1
1 2 
71
2
41
0.75
7
W0$127
0
ENDBLK
0
BLOCK
2
PART_BOT_77
8
0
10
0
20
0
3
PART_BOT_77
70
64
0
INSERT
2
SYM_BOT_5
8
0
10
0
20
0
0
INSERT
2
PKG_2
8
0
10
0
20
0
41
-1
0
TEXT
8
LABEL_INFO
10
0
20
0
40
0.56
1
0 0 1 1 0 1
72
1
73
1
11
0
21
0
41
0.75
7
W0$127
0
TEXT
8
LABEL_ATTRIBUTE
10
0
20
0
40
0.56
1
Value
72
1
73
1
11
0
21
0
41
0.75
7
W0$127
0
TEXT
8
ATTRIBUTE_04
10
0
20
0
40
0.56
1
4.7UF
72
1
73
2
11
0
21
0
41
0.75
7
W0$127
0
TEXT
8
LABEL_INFO
10
-0.6493333333
20
-0.1346666667
40
0.56
1
0 0 0 0 0 1
41
0.75
7
W0$0381
0
TEXT
8
LABEL_ATTRIBUTE
10
-0.6493333333
20
-0.1346666667
40
0.56
1
Ref.Des.
41
0.75
7
W0$0381
0
TEXT
8
PART_NAME_04
10
-0.6493333333
20
-0.1346666667
40
0.56
1
C81
41
0.75
7
W0$0381
0
TEXT
8
LABEL_INFO
10
-1.7398993333
20
0.9051913333
40
0.889
1
0 0 0 0 0 1
41
0.75
7
W0$127
0
TEXT
8
LABEL_ATTRIBUTE
10
-1.7398993333
20
0.9051913333
40
0.889
1
Comment
41
0.75
7
W0$127
0
TEXT
8
ATTRIBUTE_04
10
-1.7398993333
20
0.9051913333
40
0.889
1
 
41
0.75
7
W0$127
0
TEXT
8
PART_TYPE_BOT
10
-1.7398993333
20
-0.3648086667
40
0.889
1
C0603
41
0.75
7
W0$127
0
TEXT
8
PART_INFO
10
-1.7398993333
20
-1.6348086667
40
0.889
1
000000
71
2
41
0.75
7
W0$127
0
TEXT
8
PART_PTS
10
-1.7398993333
20
-2.9048086667
40
0.889
1
1 2 
71
2
41
0.75
7
W0$127
0
ENDBLK
0
BLOCK
2
PART_BOT_80
8
0
10
0
20
0
3
PART_BOT_80
70
64
0
INSERT
2
SYM_BOT_5
8
0
10
0
20
0
0
INSERT
2
PKG_2
8
0
10
0
20
0
41
-1
0
TEXT
8
LABEL_INFO
10
0
20
0
40
0.56
1
0 0 1 1 0 1
72
1
73
1
11
0
21
0
41
0.75
7
W0$127
0
TEXT
8
LABEL_ATTRIBUTE
10
0
20
0
40
0.56
1
Value
72
1
73
1
11
0
21
0
41
0.75
7
W0$127
0
TEXT
8
ATTRIBUTE_04
10
0
20
0
40
0.56
1
10UF
72
1
73
2
11
0
21
0
41
0.75
7
W0$127
0
TEXT
8
LABEL_INFO
10
0.4572
20
0.1524
40
0.56
1
0 324000000 0 0 0 1
50
180
41
0.75
7
W0$0381
0
TEXT
8
LABEL_ATTRIBUTE
10
0.4572
20
0.1524
40
0.56
1
Ref.Des.
50
180
41
0.75
7
W0$0381
0
TEXT
8
PART_NAME_04
10
0.4572
20
0.1524
40
0.56
1
C52
50
180
41
0.75
7
W0$0381
0
TEXT
8
LABEL_INFO
10
-1.7398993333
20
0.9051913333
40
0.889
1
0 0 0 0 0 1
41
0.75
7
W0$127
0
TEXT
8
LABEL_ATTRIBUTE
10
-1.7398993333
20
0.9051913333
40
0.889
1
Comment
41
0.75
7
W0$127
0
TEXT
8
ATTRIBUTE_04
10
-1.7398993333
20
0.9051913333
40
0.889
1
 
41
0.75
7
W0$127
0
TEXT
8
PART_TYPE_BOT
10
-1.7398993333
20
-0.3648086667
40
0.889
1
C0603
41
0.75
7
W0$127
0
TEXT
8
PART_INFO
10
-1.7398993333
20
-1.6348086667
40
0.889
1
000000
71
2
41
0.75
7
W0$127
0
TEXT
8
PART_PTS
10
-1.7398993333
20
-2.9048086667
40
0.889
1
1 2 
71
2
41
0.75
7
W0$127
0
ENDBLK
0
BLOCK
2
PART_BOT_81
8
0
10
0
20
0
3
PART_BOT_81
70
64
0
INSERT
2
SYM_BOT_5
8
0
10
0
20
0
0
INSERT
2
PKG_2
8
0
10
0
20
0
41
-1
0
TEXT
8
LABEL_INFO
10
0
20
0
40
0.56
1
0 0 1 1 0 1
72
1
73
1
11
0
21
0
41
0.75
7
W0$127
0
TEXT
8
LABEL_ATTRIBUTE
10
0
20
0
40
0.56
1
Value
72
1
73
1
11
0
21
0
41
0.75
7
W0$127
0
TEXT
8
ATTRIBUTE_04
10
0
20
0
40
0.56
1
10UF
72
1
73
2
11
0
21
0
41
0.75
7
W0$127
0
TEXT
8
LABEL_INFO
10
-0.6493333333
20
-0.1346666667
40
0.56
1
0 0 0 0 0 1
41
0.75
7
W0$0381
0
TEXT
8
LABEL_ATTRIBUTE
10
-0.6493333333
20
-0.1346666667
40
0.56
1
Ref.Des.
41
0.75
7
W0$0381
0
TEXT
8
PART_NAME_04
10
-0.6493333333
20
-0.1346666667
40
0.56
1
C53
41
0.75
7
W0$0381
0
TEXT
8
LABEL_INFO
10
-1.7398993333
20
0.9051913333
40
0.889
1
0 0 0 0 0 1
41
0.75
7
W0$127
0
TEXT
8
LABEL_ATTRIBUTE
10
-1.7398993333
20
0.9051913333
40
0.889
1
Comment
41
0.75
7
W0$127
0
TEXT
8
ATTRIBUTE_04
10
-1.7398993333
20
0.9051913333
40
0.889
1
 
41
0.75
7
W0$127
0
TEXT
8
PART_TYPE_BOT
10
-1.7398993333
20
-0.3648086667
40
0.889
1
C0603
41
0.75
7
W0$127
0
TEXT
8
PART_INFO
10
-1.7398993333
20
-1.6348086667
40
0.889
1
000000
71
2
41
0.75
7
W0$127
0
TEXT
8
PART_PTS
10
-1.7398993333
20
-2.9048086667
40
0.889
1
1 2 
71
2
41
0.75
7
W0$127
0
ENDBLK
0
BLOCK
2
PART_BOT_83
8
0
10
0
20
0
3
PART_BOT_83
70
64
0
INSERT
2
SYM_BOT_5
8
0
10
0
20
0
0
INSERT
2
PKG_2
8
0
10
0
20
0
41
-1
0
TEXT
8
LABEL_INFO
10
0
20
0
40
0.56
1
0 0 1 1 0 1
72
1
73
1
11
0
21
0
41
0.75
7
W0$127
0
TEXT
8
LABEL_ATTRIBUTE
10
0
20
0
40
0.56
1
Value
72
1
73
1
11
0
21
0
41
0.75
7
W0$127
0
TEXT
8
ATTRIBUTE_04
10
0
20
0
40
0.56
1
4.7UF
72
1
73
2
11
0
21
0
41
0.75
7
W0$127
0
TEXT
8
LABEL_INFO
10
-0.6493333333
20
-0.1346666667
40
0.56
1
0 0 0 0 0 1
41
0.75
7
W0$0381
0
TEXT
8
LABEL_ATTRIBUTE
10
-0.6493333333
20
-0.1346666667
40
0.56
1
Ref.Des.
41
0.75
7
W0$0381
0
TEXT
8
PART_NAME_04
10
-0.6493333333
20
-0.1346666667
40
0.56
1
C54
41
0.75
7
W0$0381
0
TEXT
8
LABEL_INFO
10
-1.7398993333
20
0.9051913333
40
0.889
1
0 0 0 0 0 1
41
0.75
7
W0$127
0
TEXT
8
LABEL_ATTRIBUTE
10
-1.7398993333
20
0.9051913333
40
0.889
1
Comment
41
0.75
7
W0$127
0
TEXT
8
ATTRIBUTE_04
10
-1.7398993333
20
0.9051913333
40
0.889
1
 
41
0.75
7
W0$127
0
TEXT
8
PART_TYPE_BOT
10
-1.7398993333
20
-0.3648086667
40
0.889
1
C0603
41
0.75
7
W0$127
0
TEXT
8
PART_INFO
10
-1.7398993333
20
-1.6348086667
40
0.889
1
000000
71
2
41
0.75
7
W0$127
0
TEXT
8
PART_PTS
10
-1.7398993333
20
-2.9048086667
40
0.889
1
1 2 
71
2
41
0.75
7
W0$127
0
ENDBLK
0
BLOCK
2
PART_BOT_87
8
0
10
0
20
0
3
PART_BOT_87
70
64
0
INSERT
2
SYM_BOT_5
8
0
10
0
20
0
0
INSERT
2
PKG_2
8
0
10
0
20
0
41
-1
0
TEXT
8
LABEL_INFO
10
0
20
0
40
0.56
1
0 0 1 1 0 1
72
1
73
1
11
0
21
0
41
0.75
7
W0$127
0
TEXT
8
LABEL_ATTRIBUTE
10
0
20
0
40
0.56
1
Value
72
1
73
1
11
0
21
0
41
0.75
7
W0$127
0
TEXT
8
ATTRIBUTE_04
10
0
20
0
40
0.56
1
10UF/10V
72
1
73
2
11
0
21
0
41
0.75
7
W0$127
0
TEXT
8
LABEL_INFO
10
-0.6493333333
20
-0.1346666667
40
0.56
1
0 0 0 0 0 1
41
0.75
7
W0$0381
0
TEXT
8
LABEL_ATTRIBUTE
10
-0.6493333333
20
-0.1346666667
40
0.56
1
Ref.Des.
41
0.75
7
W0$0381
0
TEXT
8
PART_NAME_04
10
-0.6493333333
20
-0.1346666667
40
0.56
1
C4
41
0.75
7
W0$0381
0
TEXT
8
LABEL_INFO
10
-1.7398993333
20
0.9051913333
40
0.889
1
0 0 0 0 0 1
41
0.75
7
W0$127
0
TEXT
8
LABEL_ATTRIBUTE
10
-1.7398993333
20
0.9051913333
40
0.889
1
Comment
41
0.75
7
W0$127
0
TEXT
8
ATTRIBUTE_04
10
-1.7398993333
20
0.9051913333
40
0.889
1
 
41
0.75
7
W0$127
0
TEXT
8
PART_TYPE_BOT
10
-1.7398993333
20
-0.3648086667
40
0.889
1
C0603
41
0.75
7
W0$127
0
TEXT
8
PART_INFO
10
-1.7398993333
20
-1.6348086667
40
0.889
1
000000
71
2
41
0.75
7
W0$127
0
TEXT
8
PART_PTS
10
-1.7398993333
20
-2.9048086667
40
0.889
1
1 2 
71
2
41
0.75
7
W0$127
0
ENDBLK
0
BLOCK
2
PART_BOT_88
8
0
10
0
20
0
3
PART_BOT_88
70
64
0
INSERT
2
SYM_BOT_4
8
0
10
0
20
0
0
INSERT
2
PKG_1
8
0
10
0
20
0
41
-1
0
TEXT
8
LABEL_INFO
10
0
20
0
40
0.56
1
0 0 1 1 0 1
72
1
73
1
11
0
21
0
41
0.75
7
W0$127
0
TEXT
8
LABEL_ATTRIBUTE
10
0
20
0
40
0.56
1
Value
72
1
73
1
11
0
21
0
41
0.75
7
W0$127
0
TEXT
8
ATTRIBUTE_04
10
0
20
0
40
0.56
1
0.1UF/10V
72
1
73
2
11
0
21
0
41
0.75
7
W0$127
0
TEXT
8
LABEL_INFO
10
-0.0353333333
20
0.0363333333
40
0.56
1
0 0 1 1 0 1
72
1
73
1
11
-0.0353333333
21
0.0363333333
41
0.75
7
W0$0381
0
TEXT
8
LABEL_ATTRIBUTE
10
-0.0353333333
20
0.0363333333
40
0.56
1
Ref.Des.
72
1
73
1
11
-0.0353333333
21
0.0363333333
41
0.75
7
W0$0381
0
TEXT
8
PART_NAME_04
10
-0.0353333333
20
0.0363333333
40
0.56
1
C5
72
1
73
2
11
-0.0353333333
21
0.0363333333
41
0.75
7
W0$0381
0
TEXT
8
LABEL_INFO
10
1.3235006667
20
1.1685286667
40
0.889
1
0 0 1 1 0 1
72
1
73
1
11
1.3235006667
21
1.1685286667
41
0.75
7
W0$127
0
TEXT
8
LABEL_ATTRIBUTE
10
1.3235006667
20
1.1685286667
40
0.889
1
Comment
72
1
73
1
11
1.3235006667
21
1.1685286667
41
0.75
7
W0$127
0
TEXT
8
ATTRIBUTE_04
10
1.3235006667
20
1.1685286667
40
0.889
1
 
72
1
73
2
11
1.3235006667
21
1.1685286667
41
0.75
7
W0$127
0
TEXT
8
PART_TYPE_BOT
10
1.3235006667
20
-0.1014713333
40
0.889
1
C0402
72
1
73
2
11
1.3235006667
21
-0.1014713333
41
0.75
7
W0$127
0
TEXT
8
PART_INFO
10
1.3235006667
20
-1.3714713333
40
0.889
1
000000
71
2
72
1
73
2
11
1.3235006667
21
-1.3714713333
41
0.75
7
W0$127
0
TEXT
8
PART_PTS
10
1.3235006667
20
-2.6414713333
40
0.889
1
1 2 
71
2
72
1
73
2
11
1.3235006667
21
-2.6414713333
41
0.75
7
W0$127
0
ENDBLK
0
BLOCK
2
PART_BOT_91
8
0
10
0
20
0
3
PART_BOT_91
70
64
0
INSERT
2
SYM_BOT_4
8
0
10
0
20
0
0
INSERT
2
PKG_1
8
0
10
0
20
0
41
-1
0
TEXT
8
LABEL_INFO
10
0
20
0
40
0.56
1
0 0 1 1 0 1
72
1
73
1
11
0
21
0
41
0.75
7
W0$127
0
TEXT
8
LABEL_ATTRIBUTE
10
0
20
0
40
0.56
1
Value
72
1
73
1
11
0
21
0
41
0.75
7
W0$127
0
TEXT
8
ATTRIBUTE_04
10
0
20
0
40
0.56
1
0.1UF
72
1
73
2
11
0
21
0
41
0.75
7
W0$127
0
TEXT
8
LABEL_INFO
10
-0.0353333333
20
0.0363333333
40
0.56
1
0 0 1 1 0 1
72
1
73
1
11
-0.0353333333
21
0.0363333333
41
0.75
7
W0$0381
0
TEXT
8
LABEL_ATTRIBUTE
10
-0.0353333333
20
0.0363333333
40
0.56
1
Ref.Des.
72
1
73
1
11
-0.0353333333
21
0.0363333333
41
0.75
7
W0$0381
0
TEXT
8
PART_NAME_04
10
-0.0353333333
20
0.0363333333
40
0.56
1
C10
72
1
73
2
11
-0.0353333333
21
0.0363333333
41
0.75
7
W0$0381
0
TEXT
8
LABEL_INFO
10
1.3235006667
20
1.1685286667
40
0.889
1
0 0 1 1 0 1
72
1
73
1
11
1.3235006667
21
1.1685286667
41
0.75
7
W0$127
0
TEXT
8
LABEL_ATTRIBUTE
10
1.3235006667
20
1.1685286667
40
0.889
1
Comment
72
1
73
1
11
1.3235006667
21
1.1685286667
41
0.75
7
W0$127
0
TEXT
8
ATTRIBUTE_04
10
1.3235006667
20
1.1685286667
40
0.889
1
 
72
1
73
2
11
1.3235006667
21
1.1685286667
41
0.75
7
W0$127
0
TEXT
8
PART_TYPE_BOT
10
1.3235006667
20
-0.1014713333
40
0.889
1
C0402
72
1
73
2
11
1.3235006667
21
-0.1014713333
41
0.75
7
W0$127
0
TEXT
8
PART_INFO
10
1.3235006667
20
-1.3714713333
40
0.889
1
000000
71
2
72
1
73
2
11
1.3235006667
21
-1.3714713333
41
0.75
7
W0$127
0
TEXT
8
PART_PTS
10
1.3235006667
20
-2.6414713333
40
0.889
1
1 2 
71
2
72
1
73
2
11
1.3235006667
21
-2.6414713333
41
0.75
7
W0$127
0
ENDBLK
0
BLOCK
2
PART_BOT_92
8
0
10
0
20
0
3
PART_BOT_92
70
64
0
INSERT
2
SYM_BOT_6
8
0
10
0
20
0
0
INSERT
2
PKG_3
8
0
10
0
20
0
41
-1
0
TEXT
8
LABEL_INFO
10
0
20
0
40
0.56
1
0 0 1 1 0 1
72
1
73
1
11
0
21
0
41
0.75
7
W0$127
0
TEXT
8
LABEL_ATTRIBUTE
10
0
20
0
40
0.56
1
Value
72
1
73
1
11
0
21
0
41
0.75
7
W0$127
0
TEXT
8
ATTRIBUTE_04
10
0
20
0
40
0.56
1
10UF/16V
72
1
73
2
11
0
21
0
41
0.75
7
W0$127
0
TEXT
8
LABEL_INFO
10
-2.0012653333
20
1.1556933333
40
0.889
1
0 0 0 0 0 1
41
0.75
7
W0$127
0
TEXT
8
LABEL_ATTRIBUTE
10
-2.0012653333
20
1.1556933333
40
0.889
1
Comment
41
0.75
7
W0$127
0
TEXT
8
ATTRIBUTE_04
10
-2.0012653333
20
1.1556933333
40
0.889
1
 
41
0.75
7
W0$127
0
TEXT
8
LABEL_INFO
10
-0.7113333333
20
-0.077
40
0.56
1
0 0 0 0 0 1
41
0.75
7
W0$0381
0
TEXT
8
LABEL_ATTRIBUTE
10
-0.7113333333
20
-0.077
40
0.56
1
Ref.Des.
41
0.75
7
W0$0381
0
TEXT
8
PART_NAME_04
10
-0.7113333333
20
-0.077
40
0.56
1
C11
41
0.75
7
W0$0381
0
TEXT
8
PART_TYPE_BOT
10
-0.7113333333
20
-0.877
40
0.56
1
C0805
41
0.75
7
W0$0381
0
TEXT
8
PART_INFO
10
-0.7113333333
20
-1.677
40
0.56
1
000000
71
2
41
0.75
7
W0$0381
0
TEXT
8
PART_PTS
10
-0.7113333333
20
-2.477
40
0.56
1
1 2 
71
2
41
0.75
7
W0$0381
0
ENDBLK
0
BLOCK
2
PART_BOT_93
8
0
10
0
20
0
3
PART_BOT_93
70
64
0
INSERT
2
SYM_BOT_4
8
0
10
0
20
0
0
INSERT
2
PKG_1
8
0
10
0
20
0
41
-1
0
TEXT
8
LABEL_INFO
10
0
20
0
40
0.56
1
0 0 1 1 0 1
72
1
73
1
11
0
21
0
41
0.75
7
W0$127
0
TEXT
8
LABEL_ATTRIBUTE
10
0
20
0
40
0.56
1
Value
72
1
73
1
11
0
21
0
41
0.75
7
W0$127
0
TEXT
8
ATTRIBUTE_04
10
0
20
0
40
0.56
1
0.1UF
72
1
73
2
11
0
21
0
41
0.75
7
W0$127
0
TEXT
8
LABEL_INFO
10
-0.0353333333
20
0.0363333333
40
0.56
1
0 0 1 1 0 1
72
1
73
1
11
-0.0353333333
21
0.0363333333
41
0.75
7
W0$0381
0
TEXT
8
LABEL_ATTRIBUTE
10
-0.0353333333
20
0.0363333333
40
0.56
1
Ref.Des.
72
1
73
1
11
-0.0353333333
21
0.0363333333
41
0.75
7
W0$0381
0
TEXT
8
PART_NAME_04
10
-0.0353333333
20
0.0363333333
40
0.56
1
C12
72
1
73
2
11
-0.0353333333
21
0.0363333333
41
0.75
7
W0$0381
0
TEXT
8
LABEL_INFO
10
1.3235006667
20
1.1685286667
40
0.889
1
0 0 1 1 0 1
72
1
73
1
11
1.3235006667
21
1.1685286667
41
0.75
7
W0$127
0
TEXT
8
LABEL_ATTRIBUTE
10
1.3235006667
20
1.1685286667
40
0.889
1
Comment
72
1
73
1
11
1.3235006667
21
1.1685286667
41
0.75
7
W0$127
0
TEXT
8
ATTRIBUTE_04
10
1.3235006667
20
1.1685286667
40
0.889
1
 
72
1
73
2
11
1.3235006667
21
1.1685286667
41
0.75
7
W0$127
0
TEXT
8
PART_TYPE_BOT
10
1.3235006667
20
-0.1014713333
40
0.889
1
C0402
72
1
73
2
11
1.3235006667
21
-0.1014713333
41
0.75
7
W0$127
0
TEXT
8
PART_INFO
10
1.3235006667
20
-1.3714713333
40
0.889
1
000000
71
2
72
1
73
2
11
1.3235006667
21
-1.3714713333
41
0.75
7
W0$127
0
TEXT
8
PART_PTS
10
1.3235006667
20
-2.6414713333
40
0.889
1
1 2 
71
2
72
1
73
2
11
1.3235006667
21
-2.6414713333
41
0.75
7
W0$127
0
ENDBLK
0
BLOCK
2
PART_BOT_130
8
0
10
0
20
0
3
PART_BOT_130
70
64
0
INSERT
2
SYM_BOT_4
8
0
10
0
20
0
0
INSERT
2
PKG_1
8
0
10
0
20
0
41
-1
0
TEXT
8
LABEL_INFO
10
0
20
0
40
0.56
1
0 0 1 1 0 1
72
1
73
1
11
0
21
0
41
0.75
7
W0$127
0
TEXT
8
LABEL_ATTRIBUTE
10
0
20
0
40
0.56
1
Value
72
1
73
1
11
0
21
0
41
0.75
7
W0$127
0
TEXT
8
ATTRIBUTE_04
10
0
20
0
40
0.56
1
100NF
72
1
73
2
11
0
21
0
41
0.75
7
W0$127
0
TEXT
8
LABEL_INFO
10
-0.0571493333
20
-0.0762
40
0.56
1
0 324000000 1 1 0 1
72
1
73
1
11
-0.0571493333
21
-0.0762
50
180
41
0.75
7
W0$0381
0
TEXT
8
LABEL_ATTRIBUTE
10
-0.0571493333
20
-0.0762
40
0.56
1
Ref.Des.
72
1
73
1
11
-0.0571493333
21
-0.0762
50
180
41
0.75
7
W0$0381
0
TEXT
8
PART_NAME_04
10
-0.0571493333
20
-0.0762
40
0.56
1
C58
72
1
73
2
11
-0.0571493333
21
-0.0762
50
180
41
0.75
7
W0$0381
0
TEXT
8
LABEL_INFO
10
1.3235006667
20
1.1685286667
40
0.889
1
0 0 1 1 0 1
72
1
73
1
11
1.3235006667
21
1.1685286667
41
0.75
7
W0$127
0
TEXT
8
LABEL_ATTRIBUTE
10
1.3235006667
20
1.1685286667
40
0.889
1
Comment
72
1
73
1
11
1.3235006667
21
1.1685286667
41
0.75
7
W0$127
0
TEXT
8
ATTRIBUTE_04
10
1.3235006667
20
1.1685286667
40
0.889
1
 
72
1
73
2
11
1.3235006667
21
1.1685286667
41
0.75
7
W0$127
0
TEXT
8
PART_TYPE_BOT
10
1.3235006667
20
-0.1014713333
40
0.889
1
C0402
72
1
73
2
11
1.3235006667
21
-0.1014713333
41
0.75
7
W0$127
0
TEXT
8
PART_INFO
10
1.3235006667
20
-1.3714713333
40
0.889
1
000000
71
2
72
1
73
2
11
1.3235006667
21
-1.3714713333
41
0.75
7
W0$127
0
TEXT
8
PART_PTS
10
1.3235006667
20
-2.6414713333
40
0.889
1
1 2 
71
2
72
1
73
2
11
1.3235006667
21
-2.6414713333
41
0.75
7
W0$127
0
ENDBLK
0
BLOCK
2
PART_BOT_131
8
0
10
0
20
0
3
PART_BOT_131
70
64
0
INSERT
2
SYM_BOT_4
8
0
10
0
20
0
0
INSERT
2
PKG_1
8
0
10
0
20
0
41
-1
0
TEXT
8
LABEL_INFO
10
0
20
0
40
0.56
1
0 0 1 1 0 1
72
1
73
1
11
0
21
0
41
0.75
7
W0$127
0
TEXT
8
LABEL_ATTRIBUTE
10
0
20
0
40
0.56
1
Value
72
1
73
1
11
0
21
0
41
0.75
7
W0$127
0
TEXT
8
ATTRIBUTE_04
10
0
20
0
40
0.56
1
100NF
72
1
73
2
11
0
21
0
41
0.75
7
W0$127
0
TEXT
8
LABEL_INFO
10
-0.0571493333
20
-0.0762
40
0.56
1
0 324000000 1 1 0 1
72
1
73
1
11
-0.0571493333
21
-0.0762
50
180
41
0.75
7
W0$0381
0
TEXT
8
LABEL_ATTRIBUTE
10
-0.0571493333
20
-0.0762
40
0.56
1
Ref.Des.
72
1
73
1
11
-0.0571493333
21
-0.0762
50
180
41
0.75
7
W0$0381
0
TEXT
8
PART_NAME_04
10
-0.0571493333
20
-0.0762
40
0.56
1
C55
72
1
73
2
11
-0.0571493333
21
-0.0762
50
180
41
0.75
7
W0$0381
0
TEXT
8
LABEL_INFO
10
1.3235006667
20
1.1685286667
40
0.889
1
0 0 1 1 0 1
72
1
73
1
11
1.3235006667
21
1.1685286667
41
0.75
7
W0$127
0
TEXT
8
LABEL_ATTRIBUTE
10
1.3235006667
20
1.1685286667
40
0.889
1
Comment
72
1
73
1
11
1.3235006667
21
1.1685286667
41
0.75
7
W0$127
0
TEXT
8
ATTRIBUTE_04
10
1.3235006667
20
1.1685286667
40
0.889
1
 
72
1
73
2
11
1.3235006667
21
1.1685286667
41
0.75
7
W0$127
0
TEXT
8
PART_TYPE_BOT
10
1.3235006667
20
-0.1014713333
40
0.889
1
C0402
72
1
73
2
11
1.3235006667
21
-0.1014713333
41
0.75
7
W0$127
0
TEXT
8
PART_INFO
10
1.3235006667
20
-1.3714713333
40
0.889
1
000000
71
2
72
1
73
2
11
1.3235006667
21
-1.3714713333
41
0.75
7
W0$127
0
TEXT
8
PART_PTS
10
1.3235006667
20
-2.6414713333
40
0.889
1
1 2 
71
2
72
1
73
2
11
1.3235006667
21
-2.6414713333
41
0.75
7
W0$127
0
ENDBLK
0
BLOCK
2
PART_BOT_132
8
0
10
0
20
0
3
PART_BOT_132
70
64
0
INSERT
2
SYM_BOT_4
8
0
10
0
20
0
0
INSERT
2
PKG_1
8
0
10
0
20
0
41
-1
0
TEXT
8
LABEL_INFO
10
0
20
0
40
0.56
1
0 0 1 1 0 1
72
1
73
1
11
0
21
0
41
0.75
7
W0$127
0
TEXT
8
LABEL_ATTRIBUTE
10
0
20
0
40
0.56
1
Value
72
1
73
1
11
0
21
0
41
0.75
7
W0$127
0
TEXT
8
ATTRIBUTE_04
10
0
20
0
40
0.56
1
0.1UF
72
1
73
2
11
0
21
0
41
0.75
7
W0$127
0
TEXT
8
LABEL_INFO
10
-0.0353333333
20
0.0363333333
40
0.56
1
0 0 1 1 0 1
72
1
73
1
11
-0.0353333333
21
0.0363333333
41
0.75
7
W0$0381
0
TEXT
8
LABEL_ATTRIBUTE
10
-0.0353333333
20
0.0363333333
40
0.56
1
Ref.Des.
72
1
73
1
11
-0.0353333333
21
0.0363333333
41
0.75
7
W0$0381
0
TEXT
8
PART_NAME_04
10
-0.0353333333
20
0.0363333333
40
0.56
1
C9
72
1
73
2
11
-0.0353333333
21
0.0363333333
41
0.75
7
W0$0381
0
TEXT
8
LABEL_INFO
10
1.3235006667
20
1.1685286667
40
0.889
1
0 0 1 1 0 1
72
1
73
1
11
1.3235006667
21
1.1685286667
41
0.75
7
W0$127
0
TEXT
8
LABEL_ATTRIBUTE
10
1.3235006667
20
1.1685286667
40
0.889
1
Comment
72
1
73
1
11
1.3235006667
21
1.1685286667
41
0.75
7
W0$127
0
TEXT
8
ATTRIBUTE_04
10
1.3235006667
20
1.1685286667
40
0.889
1
 
72
1
73
2
11
1.3235006667
21
1.1685286667
41
0.75
7
W0$127
0
TEXT
8
PART_TYPE_BOT
10
1.3235006667
20
-0.1014713333
40
0.889
1
C0402
72
1
73
2
11
1.3235006667
21
-0.1014713333
41
0.75
7
W0$127
0
TEXT
8
PART_INFO
10
1.3235006667
20
-1.3714713333
40
0.889
1
000000
71
2
72
1
73
2
11
1.3235006667
21
-1.3714713333
41
0.75
7
W0$127
0
TEXT
8
PART_PTS
10
1.3235006667
20
-2.6414713333
40
0.889
1
1 2 
71
2
72
1
73
2
11
1.3235006667
21
-2.6414713333
41
0.75
7
W0$127
0
ENDBLK
0
BLOCK
2
PART_BOT_133
8
0
10
0
20
0
3
PART_BOT_133
70
64
0
INSERT
2
SYM_BOT_6
8
0
10
0
20
0
0
INSERT
2
PKG_3
8
0
10
0
20
0
41
-1
0
TEXT
8
LABEL_INFO
10
0
20
0
40
0.56
1
0 0 1 1 0 1
72
1
73
1
11
0
21
0
41
0.75
7
W0$127
0
TEXT
8
LABEL_ATTRIBUTE
10
0
20
0
40
0.56
1
Value
72
1
73
1
11
0
21
0
41
0.75
7
W0$127
0
TEXT
8
ATTRIBUTE_04
10
0
20
0
40
0.56
1
22UF/25V
72
1
73
2
11
0
21
0
41
0.75
7
W0$127
0
TEXT
8
LABEL_INFO
10
-2.0012653333
20
1.1556933333
40
0.889
1
0 0 0 0 0 1
41
0.75
7
W0$127
0
TEXT
8
LABEL_ATTRIBUTE
10
-2.0012653333
20
1.1556933333
40
0.889
1
Comment
41
0.75
7
W0$127
0
TEXT
8
ATTRIBUTE_04
10
-2.0012653333
20
1.1556933333
40
0.889
1
 
41
0.75
7
W0$127
0
TEXT
8
LABEL_INFO
10
-0.7113333333
20
-0.077
40
0.56
1
0 0 0 0 0 1
41
0.75
7
W0$0381
0
TEXT
8
LABEL_ATTRIBUTE
10
-0.7113333333
20
-0.077
40
0.56
1
Ref.Des.
41
0.75
7
W0$0381
0
TEXT
8
PART_NAME_04
10
-0.7113333333
20
-0.077
40
0.56
1
C8
41
0.75
7
W0$0381
0
TEXT
8
PART_TYPE_BOT
10
-0.7113333333
20
-0.877
40
0.56
1
C0805
41
0.75
7
W0$0381
0
TEXT
8
PART_INFO
10
-0.7113333333
20
-1.677
40
0.56
1
000000
71
2
41
0.75
7
W0$0381
0
TEXT
8
PART_PTS
10
-0.7113333333
20
-2.477
40
0.56
1
1 2 
71
2
41
0.75
7
W0$0381
0
ENDBLK
0
BLOCK
2
PART_BOT_136
8
0
10
0
20
0
3
PART_BOT_136
70
64
0
INSERT
2
SYM_BOT_4
8
0
10
0
20
0
0
INSERT
2
PKG_1
8
0
10
0
20
0
41
-1
0
TEXT
8
LABEL_INFO
10
0
20
0
40
0.56
1
0 0 1 1 0 1
72
1
73
1
11
0
21
0
41
0.75
7
W0$127
0
TEXT
8
LABEL_ATTRIBUTE
10
0
20
0
40
0.56
1
Value
72
1
73
1
11
0
21
0
41
0.75
7
W0$127
0
TEXT
8
ATTRIBUTE_04
10
0
20
0
40
0.56
1
0.1UF
72
1
73
2
11
0
21
0
41
0.75
7
W0$127
0
TEXT
8
LABEL_INFO
10
0.09525
20
-0.0253993333
40
0.56
1
0 324000000 1 1 0 1
72
1
73
1
11
0.09525
21
-0.0253993333
50
180
41
0.75
7
W0$0381
0
TEXT
8
LABEL_ATTRIBUTE
10
0.09525
20
-0.0253993333
40
0.56
1
Ref.Des.
72
1
73
1
11
0.09525
21
-0.0253993333
50
180
41
0.75
7
W0$0381
0
TEXT
8
PART_NAME_04
10
0.09525
20
-0.0253993333
40
0.56
1
C34
72
1
73
2
11
0.09525
21
-0.0253993333
50
180
41
0.75
7
W0$0381
0
TEXT
8
LABEL_INFO
10
1.3235006667
20
1.1685286667
40
0.889
1
0 0 1 1 0 1
72
1
73
1
11
1.3235006667
21
1.1685286667
41
0.75
7
W0$127
0
TEXT
8
LABEL_ATTRIBUTE
10
1.3235006667
20
1.1685286667
40
0.889
1
Comment
72
1
73
1
11
1.3235006667
21
1.1685286667
41
0.75
7
W0$127
0
TEXT
8
ATTRIBUTE_04
10
1.3235006667
20
1.1685286667
40
0.889
1
 
72
1
73
2
11
1.3235006667
21
1.1685286667
41
0.75
7
W0$127
0
TEXT
8
PART_TYPE_BOT
10
1.3235006667
20
-0.1014713333
40
0.889
1
C0402
72
1
73
2
11
1.3235006667
21
-0.1014713333
41
0.75
7
W0$127
0
TEXT
8
PART_INFO
10
1.3235006667
20
-1.3714713333
40
0.889
1
000000
71
2
72
1
73
2
11
1.3235006667
21
-1.3714713333
41
0.75
7
W0$127
0
TEXT
8
PART_PTS
10
1.3235006667
20
-2.6414713333
40
0.889
1
1 2 
71
2
72
1
73
2
11
1.3235006667
21
-2.6414713333
41
0.75
7
W0$127
0
ENDBLK
0
BLOCK
2
PART_BOT_137
8
0
10
0
20
0
3
PART_BOT_137
70
64
0
INSERT
2
SYM_BOT_6
8
0
10
0
20
0
0
INSERT
2
PKG_3
8
0
10
0
20
0
41
-1
0
TEXT
8
LABEL_INFO
10
0
20
0
40
0.56
1
0 0 1 1 0 1
72
1
73
1
11
0
21
0
41
0.75
7
W0$127
0
TEXT
8
LABEL_ATTRIBUTE
10
0
20
0
40
0.56
1
Value
72
1
73
1
11
0
21
0
41
0.75
7
W0$127
0
TEXT
8
ATTRIBUTE_04
10
0
20
0
40
0.56
1
22UF/6.3V
72
1
73
2
11
0
21
0
41
0.75
7
W0$127
0
TEXT
8
LABEL_INFO
10
-2.0012653333
20
1.1556933333
40
0.889
1
0 0 0 0 0 1
41
0.75
7
W0$127
0
TEXT
8
LABEL_ATTRIBUTE
10
-2.0012653333
20
1.1556933333
40
0.889
1
Comment
41
0.75
7
W0$127
0
TEXT
8
ATTRIBUTE_04
10
-2.0012653333
20
1.1556933333
40
0.889
1
 
41
0.75
7
W0$127
0
TEXT
8
LABEL_INFO
10
0.7874
20
0.1524
40
0.56
1
0 324000000 0 0 0 1
50
180
41
0.75
7
W0$0381
0
TEXT
8
LABEL_ATTRIBUTE
10
0.7874
20
0.1524
40
0.56
1
Ref.Des.
50
180
41
0.75
7
W0$0381
0
TEXT
8
PART_NAME_04
10
0.7874
20
0.1524
40
0.56
1
C36
50
180
41
0.75
7
W0$0381
0
TEXT
8
PART_TYPE_BOT
10
0.7874
20
-0.6476
40
0.56
1
C0805
50
180
41
0.75
7
W0$0381
0
TEXT
8
PART_INFO
10
0.7874
20
-1.4476
40
0.56
1
000000
71
2
50
180
41
0.75
7
W0$0381
0
TEXT
8
PART_PTS
10
0.7874
20
-2.2476
40
0.56
1
1 2 
71
2
50
180
41
0.75
7
W0$0381
0
ENDBLK
0
BLOCK
2
PART_BOT_138
8
0
10
0
20
0
3
PART_BOT_138
70
64
0
INSERT
2
SYM_BOT_4
8
0
10
0
20
0
0
INSERT
2
PKG_1
8
0
10
0
20
0
41
-1
0
TEXT
8
LABEL_INFO
10
0
20
0
40
0.56
1
0 0 1 1 0 1
72
1
73
1
11
0
21
0
41
0.75
7
W0$127
0
TEXT
8
LABEL_ATTRIBUTE
10
0
20
0
40
0.56
1
Value
72
1
73
1
11
0
21
0
41
0.75
7
W0$127
0
TEXT
8
ATTRIBUTE_04
10
0
20
0
40
0.56
1
0.1UF
72
1
73
2
11
0
21
0
41
0.75
7
W0$127
0
TEXT
8
LABEL_INFO
10
0.01905
20
-0.0254
40
0.56
1
0 324000000 1 1 0 1
72
1
73
1
11
0.01905
21
-0.0254
50
180
41
0.75
7
W0$0381
0
TEXT
8
LABEL_ATTRIBUTE
10
0.01905
20
-0.0254
40
0.56
1
Ref.Des.
72
1
73
1
11
0.01905
21
-0.0254
50
180
41
0.75
7
W0$0381
0
TEXT
8
PART_NAME_04
10
0.01905
20
-0.0254
40
0.56
1
C35
72
1
73
2
11
0.01905
21
-0.0254
50
180
41
0.75
7
W0$0381
0
TEXT
8
LABEL_INFO
10
1.3235006667
20
1.1685286667
40
0.889
1
0 0 1 1 0 1
72
1
73
1
11
1.3235006667
21
1.1685286667
41
0.75
7
W0$127
0
TEXT
8
LABEL_ATTRIBUTE
10
1.3235006667
20
1.1685286667
40
0.889
1
Comment
72
1
73
1
11
1.3235006667
21
1.1685286667
41
0.75
7
W0$127
0
TEXT
8
ATTRIBUTE_04
10
1.3235006667
20
1.1685286667
40
0.889
1
 
72
1
73
2
11
1.3235006667
21
1.1685286667
41
0.75
7
W0$127
0
TEXT
8
PART_TYPE_BOT
10
1.3235006667
20
-0.1014713333
40
0.889
1
C0402
72
1
73
2
11
1.3235006667
21
-0.1014713333
41
0.75
7
W0$127
0
TEXT
8
PART_INFO
10
1.3235006667
20
-1.3714713333
40
0.889
1
000000
71
2
72
1
73
2
11
1.3235006667
21
-1.3714713333
41
0.75
7
W0$127
0
TEXT
8
PART_PTS
10
1.3235006667
20
-2.6414713333
40
0.889
1
1 2 
71
2
72
1
73
2
11
1.3235006667
21
-2.6414713333
41
0.75
7
W0$127
0
ENDBLK
0
BLOCK
2
PART_BOT_139
8
0
10
0
20
0
3
PART_BOT_139
70
64
0
INSERT
2
SYM_BOT_4
8
0
10
0
20
0
0
INSERT
2
PKG_1
8
0
10
0
20
0
41
-1
0
TEXT
8
LABEL_INFO
10
0
20
0
40
0.56
1
0 0 1 1 0 1
72
1
73
1
11
0
21
0
41
0.75
7
W0$127
0
TEXT
8
LABEL_ATTRIBUTE
10
0
20
0
40
0.56
1
Value
72
1
73
1
11
0
21
0
41
0.75
7
W0$127
0
TEXT
8
ATTRIBUTE_04
10
0
20
0
40
0.56
1
0.1UF
72
1
73
2
11
0
21
0
41
0.75
7
W0$127
0
TEXT
8
LABEL_INFO
10
-0.0353333333
20
0.0363333333
40
0.56
1
0 0 1 1 0 1
72
1
73
1
11
-0.0353333333
21
0.0363333333
41
0.75
7
W0$0381
0
TEXT
8
LABEL_ATTRIBUTE
10
-0.0353333333
20
0.0363333333
40
0.56
1
Ref.Des.
72
1
73
1
11
-0.0353333333
21
0.0363333333
41
0.75
7
W0$0381
0
TEXT
8
PART_NAME_04
10
-0.0353333333
20
0.0363333333
40
0.56
1
C24
72
1
73
2
11
-0.0353333333
21
0.0363333333
41
0.75
7
W0$0381
0
TEXT
8
LABEL_INFO
10
1.3235006667
20
1.1685286667
40
0.889
1
0 0 1 1 0 1
72
1
73
1
11
1.3235006667
21
1.1685286667
41
0.75
7
W0$127
0
TEXT
8
LABEL_ATTRIBUTE
10
1.3235006667
20
1.1685286667
40
0.889
1
Comment
72
1
73
1
11
1.3235006667
21
1.1685286667
41
0.75
7
W0$127
0
TEXT
8
ATTRIBUTE_04
10
1.3235006667
20
1.1685286667
40
0.889
1
 
72
1
73
2
11
1.3235006667
21
1.1685286667
41
0.75
7
W0$127
0
TEXT
8
PART_TYPE_BOT
10
1.3235006667
20
-0.1014713333
40
0.889
1
C0402
72
1
73
2
11
1.3235006667
21
-0.1014713333
41
0.75
7
W0$127
0
TEXT
8
PART_INFO
10
1.3235006667
20
-1.3714713333
40
0.889
1
000000
71
2
72
1
73
2
11
1.3235006667
21
-1.3714713333
41
0.75
7
W0$127
0
TEXT
8
PART_PTS
10
1.3235006667
20
-2.6414713333
40
0.889
1
1 2 
71
2
72
1
73
2
11
1.3235006667
21
-2.6414713333
41
0.75
7
W0$127
0
ENDBLK
0
BLOCK
2
PART_BOT_140
8
0
10
0
20
0
3
PART_BOT_140
70
64
0
INSERT
2
SYM_BOT_4
8
0
10
0
20
0
0
INSERT
2
PKG_1
8
0
10
0
20
0
41
-1
0
TEXT
8
LABEL_INFO
10
0
20
0
40
0.56
1
0 0 1 1 0 1
72
1
73
1
11
0
21
0
41
0.75
7
W0$127
0
TEXT
8
LABEL_ATTRIBUTE
10
0
20
0
40
0.56
1
Value
72
1
73
1
11
0
21
0
41
0.75
7
W0$127
0
TEXT
8
ATTRIBUTE_04
10
0
20
0
40
0.56
1
15PF
72
1
73
2
11
0
21
0
41
0.75
7
W0$127
0
TEXT
8
LABEL_INFO
10
-0.0353333333
20
0.0363333333
40
0.56
1
0 0 1 1 0 1
72
1
73
1
11
-0.0353333333
21
0.0363333333
41
0.75
7
W0$0381
0
TEXT
8
LABEL_ATTRIBUTE
10
-0.0353333333
20
0.0363333333
40
0.56
1
Ref.Des.
72
1
73
1
11
-0.0353333333
21
0.0363333333
41
0.75
7
W0$0381
0
TEXT
8
PART_NAME_04
10
-0.0353333333
20
0.0363333333
40
0.56
1
C22
72
1
73
2
11
-0.0353333333
21
0.0363333333
41
0.75
7
W0$0381
0
TEXT
8
LABEL_INFO
10
1.3235006667
20
1.1685286667
40
0.889
1
0 0 1 1 0 1
72
1
73
1
11
1.3235006667
21
1.1685286667
41
0.75
7
W0$127
0
TEXT
8
LABEL_ATTRIBUTE
10
1.3235006667
20
1.1685286667
40
0.889
1
Comment
72
1
73
1
11
1.3235006667
21
1.1685286667
41
0.75
7
W0$127
0
TEXT
8
ATTRIBUTE_04
10
1.3235006667
20
1.1685286667
40
0.889
1
 
72
1
73
2
11
1.3235006667
21
1.1685286667
41
0.75
7
W0$127
0
TEXT
8
PART_TYPE_BOT
10
1.3235006667
20
-0.1014713333
40
0.889
1
C0402
72
1
73
2
11
1.3235006667
21
-0.1014713333
41
0.75
7
W0$127
0
TEXT
8
PART_INFO
10
1.3235006667
20
-1.3714713333
40
0.889
1
000000
71
2
72
1
73
2
11
1.3235006667
21
-1.3714713333
41
0.75
7
W0$127
0
TEXT
8
PART_PTS
10
1.3235006667
20
-2.6414713333
40
0.889
1
1 2 
71
2
72
1
73
2
11
1.3235006667
21
-2.6414713333
41
0.75
7
W0$127
0
ENDBLK
0
BLOCK
2
PART_BOT_141
8
0
10
0
20
0
3
PART_BOT_141
70
64
0
INSERT
2
SYM_BOT_6
8
0
10
0
20
0
0
INSERT
2
PKG_3
8
0
10
0
20
0
41
-1
0
TEXT
8
LABEL_INFO
10
0
20
0
40
0.56
1
0 0 1 1 0 1
72
1
73
1
11
0
21
0
41
0.75
7
W0$127
0
TEXT
8
LABEL_ATTRIBUTE
10
0
20
0
40
0.56
1
Value
72
1
73
1
11
0
21
0
41
0.75
7
W0$127
0
TEXT
8
ATTRIBUTE_04
10
0
20
0
40
0.56
1
22UF/6.3V
72
1
73
2
11
0
21
0
41
0.75
7
W0$127
0
TEXT
8
LABEL_INFO
10
-2.0012653333
20
1.1556933333
40
0.889
1
0 0 0 0 0 1
41
0.75
7
W0$127
0
TEXT
8
LABEL_ATTRIBUTE
10
-2.0012653333
20
1.1556933333
40
0.889
1
Comment
41
0.75
7
W0$127
0
TEXT
8
ATTRIBUTE_04
10
-2.0012653333
20
1.1556933333
40
0.889
1
 
41
0.75
7
W0$127
0
TEXT
8
LABEL_INFO
10
-0.7113333333
20
-0.077
40
0.56
1
0 0 0 0 0 1
41
0.75
7
W0$0381
0
TEXT
8
LABEL_ATTRIBUTE
10
-0.7113333333
20
-0.077
40
0.56
1
Ref.Des.
41
0.75
7
W0$0381
0
TEXT
8
PART_NAME_04
10
-0.7113333333
20
-0.077
40
0.56
1
C25
41
0.75
7
W0$0381
0
TEXT
8
PART_TYPE_BOT
10
-0.7113333333
20
-0.877
40
0.56
1
C0805
41
0.75
7
W0$0381
0
TEXT
8
PART_INFO
10
-0.7113333333
20
-1.677
40
0.56
1
000000
71
2
41
0.75
7
W0$0381
0
TEXT
8
PART_PTS
10
-0.7113333333
20
-2.477
40
0.56
1
1 2 
71
2
41
0.75
7
W0$0381
0
ENDBLK
0
BLOCK
2
PART_BOT_142
8
0
10
0
20
0
3
PART_BOT_142
70
64
0
INSERT
2
SYM_BOT_6
8
0
10
0
20
0
0
INSERT
2
PKG_3
8
0
10
0
20
0
41
-1
0
TEXT
8
LABEL_INFO
10
0
20
0
40
0.56
1
0 0 1 1 0 1
72
1
73
1
11
0
21
0
41
0.75
7
W0$127
0
TEXT
8
LABEL_ATTRIBUTE
10
0
20
0
40
0.56
1
Value
72
1
73
1
11
0
21
0
41
0.75
7
W0$127
0
TEXT
8
ATTRIBUTE_04
10
0
20
0
40
0.56
1
22UF/6.3V
72
1
73
2
11
0
21
0
41
0.75
7
W0$127
0
TEXT
8
LABEL_INFO
10
-2.0012653333
20
1.1556933333
40
0.889
1
0 0 0 0 0 1
41
0.75
7
W0$127
0
TEXT
8
LABEL_ATTRIBUTE
10
-2.0012653333
20
1.1556933333
40
0.889
1
Comment
41
0.75
7
W0$127
0
TEXT
8
ATTRIBUTE_04
10
-2.0012653333
20
1.1556933333
40
0.889
1
 
41
0.75
7
W0$127
0
TEXT
8
LABEL_INFO
10
-0.7113333333
20
-0.077
40
0.56
1
0 0 0 0 0 1
41
0.75
7
W0$0381
0
TEXT
8
LABEL_ATTRIBUTE
10
-0.7113333333
20
-0.077
40
0.56
1
Ref.Des.
41
0.75
7
W0$0381
0
TEXT
8
PART_NAME_04
10
-0.7113333333
20
-0.077
40
0.56
1
C26
41
0.75
7
W0$0381
0
TEXT
8
PART_TYPE_BOT
10
-0.7113333333
20
-0.877
40
0.56
1
C0805
41
0.75
7
W0$0381
0
TEXT
8
PART_INFO
10
-0.7113333333
20
-1.677
40
0.56
1
000000
71
2
41
0.75
7
W0$0381
0
TEXT
8
PART_PTS
10
-0.7113333333
20
-2.477
40
0.56
1
1 2 
71
2
41
0.75
7
W0$0381
0
ENDBLK
0
BLOCK
2
PART_BOT_143
8
0
10
0
20
0
3
PART_BOT_143
70
64
0
INSERT
2
SYM_BOT_6
8
0
10
0
20
0
0
INSERT
2
PKG_3
8
0
10
0
20
0
41
-1
0
TEXT
8
LABEL_INFO
10
0
20
0
40
0.56
1
0 0 1 1 0 1
72
1
73
1
11
0
21
0
41
0.75
7
W0$127
0
TEXT
8
LABEL_ATTRIBUTE
10
0
20
0
40
0.56
1
Value
72
1
73
1
11
0
21
0
41
0.75
7
W0$127
0
TEXT
8
ATTRIBUTE_04
10
0
20
0
40
0.56
1
10UF/16V
72
1
73
2
11
0
21
0
41
0.75
7
W0$127
0
TEXT
8
LABEL_INFO
10
-2.0012653333
20
1.1556933333
40
0.889
1
0 0 0 0 0 1
41
0.75
7
W0$127
0
TEXT
8
LABEL_ATTRIBUTE
10
-2.0012653333
20
1.1556933333
40
0.889
1
Comment
41
0.75
7
W0$127
0
TEXT
8
ATTRIBUTE_04
10
-2.0012653333
20
1.1556933333
40
0.889
1
 
41
0.75
7
W0$127
0
TEXT
8
LABEL_INFO
10
-0.7113333333
20
-0.077
40
0.56
1
0 0 0 0 0 1
41
0.75
7
W0$0381
0
TEXT
8
LABEL_ATTRIBUTE
10
-0.7113333333
20
-0.077
40
0.56
1
Ref.Des.
41
0.75
7
W0$0381
0
TEXT
8
PART_NAME_04
10
-0.7113333333
20
-0.077
40
0.56
1
C23
41
0.75
7
W0$0381
0
TEXT
8
PART_TYPE_BOT
10
-0.7113333333
20
-0.877
40
0.56
1
C0805
41
0.75
7
W0$0381
0
TEXT
8
PART_INFO
10
-0.7113333333
20
-1.677
40
0.56
1
000000
71
2
41
0.75
7
W0$0381
0
TEXT
8
PART_PTS
10
-0.7113333333
20
-2.477
40
0.56
1
1 2 
71
2
41
0.75
7
W0$0381
0
ENDBLK
0
BLOCK
2
PART_BOT_144
8
0
10
0
20
0
3
PART_BOT_144
70
64
0
INSERT
2
SYM_BOT_4
8
0
10
0
20
0
0
INSERT
2
PKG_1
8
0
10
0
20
0
41
-1
0
TEXT
8
LABEL_INFO
10
0
20
0
40
0.56
1
0 0 1 1 0 1
72
1
73
1
11
0
21
0
41
0.75
7
W0$127
0
TEXT
8
LABEL_ATTRIBUTE
10
0
20
0
40
0.56
1
Value
72
1
73
1
11
0
21
0
41
0.75
7
W0$127
0
TEXT
8
ATTRIBUTE_04
10
0
20
0
40
0.56
1
0.1UF
72
1
73
2
11
0
21
0
41
0.75
7
W0$127
0
TEXT
8
LABEL_INFO
10
0.06985
20
0
40
0.56
1
0 324000000 1 1 0 1
72
1
73
1
11
0.06985
21
0
50
180
41
0.75
7
W0$0381
0
TEXT
8
LABEL_ATTRIBUTE
10
0.06985
20
0
40
0.56
1
Ref.Des.
72
1
73
1
11
0.06985
21
0
50
180
41
0.75
7
W0$0381
0
TEXT
8
PART_NAME_04
10
0.06985
20
0
40
0.56
1
C21
72
1
73
2
11
0.06985
21
0
50
180
41
0.75
7
W0$0381
0
TEXT
8
LABEL_INFO
10
1.3235006667
20
1.1685286667
40
0.889
1
0 0 1 1 0 1
72
1
73
1
11
1.3235006667
21
1.1685286667
41
0.75
7
W0$127
0
TEXT
8
LABEL_ATTRIBUTE
10
1.3235006667
20
1.1685286667
40
0.889
1
Comment
72
1
73
1
11
1.3235006667
21
1.1685286667
41
0.75
7
W0$127
0
TEXT
8
ATTRIBUTE_04
10
1.3235006667
20
1.1685286667
40
0.889
1
 
72
1
73
2
11
1.3235006667
21
1.1685286667
41
0.75
7
W0$127
0
TEXT
8
PART_TYPE_BOT
10
1.3235006667
20
-0.1014713333
40
0.889
1
C0402
72
1
73
2
11
1.3235006667
21
-0.1014713333
41
0.75
7
W0$127
0
TEXT
8
PART_INFO
10
1.3235006667
20
-1.3714713333
40
0.889
1
000000
71
2
72
1
73
2
11
1.3235006667
21
-1.3714713333
41
0.75
7
W0$127
0
TEXT
8
PART_PTS
10
1.3235006667
20
-2.6414713333
40
0.889
1
1 2 
71
2
72
1
73
2
11
1.3235006667
21
-2.6414713333
41
0.75
7
W0$127
0
ENDBLK
0
BLOCK
2
PART_BOT_145
8
0
10
0
20
0
3
PART_BOT_145
70
64
0
INSERT
2
SYM_BOT_12
8
0
10
0
20
0
0
INSERT
2
PKG_5
8
0
10
0
20
0
41
-1
0
TEXT
8
LABEL_INFO
10
0
20
0
40
0.56
1
0 0 1 1 0 1
72
1
73
1
11
0
21
0
41
0.75
7
W0$127
0
TEXT
8
LABEL_ATTRIBUTE
10
0
20
0
40
0.56
1
Value
72
1
73
1
11
0
21
0
41
0.75
7
W0$127
0
TEXT
8
ATTRIBUTE_04
10
0
20
0
40
0.56
1
TF_SD_SOCKET
72
1
73
2
11
0
21
0
41
0.75
7
W0$127
0
TEXT
8
LABEL_INFO
10
-11.3155986667
20
9.6031973333
40
0.889
1
0 0 0 0 0 1
41
0.75
7
W0$127
0
TEXT
8
LABEL_ATTRIBUTE
10
-11.3155986667
20
9.6031973333
40
0.889
1
Comment
41
0.75
7
W0$127
0
TEXT
8
ATTRIBUTE_129
10
-11.3155986667
20
9.6031973333
40
0.889
1
 
41
0.75
7
W0$127
0
TEXT
8
LABEL_INFO
10
-4.3198
20
1.9259993333
40
0.56
1
0 324000000 0 0 0 1
50
180
41
0.75
7
W0$0381
0
TEXT
8
LABEL_ATTRIBUTE
10
-4.3198
20
1.9259993333
40
0.56
1
Ref.Des.
50
180
41
0.75
7
W0$0381
0
TEXT
8
PART_NAME_04
10
-4.3198
20
1.9259993333
40
0.56
1
CN14
50
180
41
0.75
7
W0$0381
0
TEXT
8
PART_TYPE_BOT
10
-4.3198
20
1.1259993333
40
0.56
1
TF-CKT01-009D
50
180
41
0.75
7
W0$0381
0
TEXT
8
PART_INFO
10
-4.3198
20
0.3259993333
40
0.56
1
000010
71
2
50
180
41
0.75
7
W0$0381
0
TEXT
8
PART_PTS
10
-4.3198
20
-0.4740006667
40
0.56
1
1 2 3 4 5 6 7 8 9 10 11 12 13 14 15 
71
2
50
180
41
0.75
7
W0$0381
0
ENDBLK
0
BLOCK
2
PART_BOT_154
8
0
10
0
20
0
3
PART_BOT_154
70
64
0
INSERT
2
SYM_BOT_16
8
0
10
0
20
0
0
INSERT
2
PKG_9
8
0
10
0
20
0
41
-1
0
TEXT
8
LABEL_INFO
10
0
20
0
40
0.56
1
0 0 1 1 0 1
72
1
73
1
11
0
21
0
41
0.75
7
W0$127
0
TEXT
8
LABEL_ATTRIBUTE
10
0
20
0
40
0.56
1
Value
72
1
73
1
11
0
21
0
41
0.75
7
W0$127
0
TEXT
8
ATTRIBUTE_04
10
0
20
0
40
0.56
1
ESD5451N
72
1
73
2
11
0
21
0
41
0.75
7
W0$127
0
TEXT
8
LABEL_INFO
10
-0.6564
20
-0.3272
40
0.56
1
0 0 0 0 0 1
41
0.75
7
W0$0381
0
TEXT
8
LABEL_ATTRIBUTE
10
-0.6564
20
-0.3272
40
0.56
1
Ref.Des.
41
0.75
7
W0$0381
0
TEXT
8
PART_NAME_04
10
-0.6564
20
-0.3272
40
0.56
1
ED14
41
0.75
7
W0$0381
0
TEXT
8
LABEL_INFO
10
-1.699372
20
1.065566
40
0.889
1
0 0 0 0 0 1
41
0.75
7
W0$127
0
TEXT
8
LABEL_ATTRIBUTE
10
-1.699372
20
1.065566
40
0.889
1
Comment
41
0.75
7
W0$127
0
TEXT
8
ATTRIBUTE_04
10
-1.699372
20
1.065566
40
0.889
1
 
41
0.75
7
W0$127
0
TEXT
8
PART_TYPE_BOT
10
-1.699372
20
-0.204434
40
0.889
1
E0402N
41
0.75
7
W0$127
0
TEXT
8
PART_INFO
10
-1.699372
20
-1.474434
40
0.889
1
000000
71
2
41
0.75
7
W0$127
0
TEXT
8
PART_PTS
10
-1.699372
20
-2.744434
40
0.889
1
1 2 
71
2
41
0.75
7
W0$127
0
ENDBLK
0
BLOCK
2
PART_BOT_161
8
0
10
0
20
0
3
PART_BOT_161
70
64
0
INSERT
2
SYM_BOT_16
8
0
10
0
20
0
0
INSERT
2
PKG_9
8
0
10
0
20
0
41
-1
0
TEXT
8
LABEL_INFO
10
0
20
0
40
0.56
1
0 0 1 1 0 1
72
1
73
1
11
0
21
0
41
0.75
7
W0$127
0
TEXT
8
LABEL_ATTRIBUTE
10
0
20
0
40
0.56
1
Value
72
1
73
1
11
0
21
0
41
0.75
7
W0$127
0
TEXT
8
ATTRIBUTE_04
10
0
20
0
40
0.56
1
AZ5725-01F
72
1
73
2
11
0
21
0
41
0.75
7
W0$127
0
TEXT
8
LABEL_INFO
10
-0.527812
20
-0.066548
40
0.56
1
0 0 0 0 0 1
41
0.75
7
W0$0381
0
TEXT
8
LABEL_ATTRIBUTE
10
-0.527812
20
-0.066548
40
0.56
1
Ref.Des.
41
0.75
7
W0$0381
0
TEXT
8
PART_NAME_04
10
-0.527812
20
-0.066548
40
0.56
1
ED16
41
0.75
7
W0$0381
0
TEXT
8
LABEL_INFO
10
-1.699372
20
1.065566
40
0.889
1
0 0 0 0 0 1
41
0.75
7
W0$127
0
TEXT
8
LABEL_ATTRIBUTE
10
-1.699372
20
1.065566
40
0.889
1
Comment
41
0.75
7
W0$127
0
TEXT
8
ATTRIBUTE_04
10
-1.699372
20
1.065566
40
0.889
1
 
41
0.75
7
W0$127
0
TEXT
8
PART_TYPE_BOT
10
-1.699372
20
-0.204434
40
0.889
1
E0402N
41
0.75
7
W0$127
0
TEXT
8
PART_INFO
10
-1.699372
20
-1.474434
40
0.889
1
000000
71
2
41
0.75
7
W0$127
0
TEXT
8
PART_PTS
10
-1.699372
20
-2.744434
40
0.889
1
1 2 
71
2
41
0.75
7
W0$127
0
ENDBLK
0
BLOCK
2
PART_BOT_162
8
0
10
0
20
0
3
PART_BOT_162
70
64
0
INSERT
2
SYM_BOT_16
8
0
10
0
20
0
0
INSERT
2
PKG_9
8
0
10
0
20
0
41
-1
0
TEXT
8
LABEL_INFO
10
0
20
0
40
0.56
1
0 0 1 1 0 1
72
1
73
1
11
0
21
0
41
0.75
7
W0$127
0
TEXT
8
LABEL_ATTRIBUTE
10
0
20
0
40
0.56
1
Value
72
1
73
1
11
0
21
0
41
0.75
7
W0$127
0
TEXT
8
ATTRIBUTE_04
10
0
20
0
40
0.56
1
AZ5725-01F
72
1
73
2
11
0
21
0
41
0.75
7
W0$127
0
TEXT
8
LABEL_INFO
10
-0.527812
20
-0.066548
40
0.56
1
0 0 0 0 0 1
41
0.75
7
W0$0381
0
TEXT
8
LABEL_ATTRIBUTE
10
-0.527812
20
-0.066548
40
0.56
1
Ref.Des.
41
0.75
7
W0$0381
0
TEXT
8
PART_NAME_04
10
-0.527812
20
-0.066548
40
0.56
1
ED17
41
0.75
7
W0$0381
0
TEXT
8
LABEL_INFO
10
-1.699372
20
1.065566
40
0.889
1
0 0 0 0 0 1
41
0.75
7
W0$127
0
TEXT
8
LABEL_ATTRIBUTE
10
-1.699372
20
1.065566
40
0.889
1
Comment
41
0.75
7
W0$127
0
TEXT
8
ATTRIBUTE_04
10
-1.699372
20
1.065566
40
0.889
1
 
41
0.75
7
W0$127
0
TEXT
8
PART_TYPE_BOT
10
-1.699372
20
-0.204434
40
0.889
1
E0402N
41
0.75
7
W0$127
0
TEXT
8
PART_INFO
10
-1.699372
20
-1.474434
40
0.889
1
000000
71
2
41
0.75
7
W0$127
0
TEXT
8
PART_PTS
10
-1.699372
20
-2.744434
40
0.889
1
1 2 
71
2
41
0.75
7
W0$127
0
ENDBLK
0
BLOCK
2
PART_BOT_163
8
0
10
0
20
0
3
PART_BOT_163
70
64
0
INSERT
2
SYM_BOT_16
8
0
10
0
20
0
0
INSERT
2
PKG_9
8
0
10
0
20
0
41
-1
0
TEXT
8
LABEL_INFO
10
0
20
0
40
0.56
1
0 0 1 1 0 1
72
1
73
1
11
0
21
0
41
0.75
7
W0$127
0
TEXT
8
LABEL_ATTRIBUTE
10
0
20
0
40
0.56
1
Value
72
1
73
1
11
0
21
0
41
0.75
7
W0$127
0
TEXT
8
ATTRIBUTE_04
10
0
20
0
40
0.56
1
AZ5725-01F
72
1
73
2
11
0
21
0
41
0.75
7
W0$127
0
TEXT
8
LABEL_INFO
10
-0.527812
20
-0.066548
40
0.56
1
0 0 0 0 0 1
41
0.75
7
W0$0381
0
TEXT
8
LABEL_ATTRIBUTE
10
-0.527812
20
-0.066548
40
0.56
1
Ref.Des.
41
0.75
7
W0$0381
0
TEXT
8
PART_NAME_04
10
-0.527812
20
-0.066548
40
0.56
1
ED18
41
0.75
7
W0$0381
0
TEXT
8
LABEL_INFO
10
-1.699372
20
1.065566
40
0.889
1
0 0 0 0 0 1
41
0.75
7
W0$127
0
TEXT
8
LABEL_ATTRIBUTE
10
-1.699372
20
1.065566
40
0.889
1
Comment
41
0.75
7
W0$127
0
TEXT
8
ATTRIBUTE_04
10
-1.699372
20
1.065566
40
0.889
1
 
41
0.75
7
W0$127
0
TEXT
8
PART_TYPE_BOT
10
-1.699372
20
-0.204434
40
0.889
1
E0402N
41
0.75
7
W0$127
0
TEXT
8
PART_INFO
10
-1.699372
20
-1.474434
40
0.889
1
000000
71
2
41
0.75
7
W0$127
0
TEXT
8
PART_PTS
10
-1.699372
20
-2.744434
40
0.889
1
1 2 
71
2
41
0.75
7
W0$127
0
ENDBLK
0
BLOCK
2
PART_BOT_164
8
0
10
0
20
0
3
PART_BOT_164
70
64
0
INSERT
2
SYM_BOT_16
8
0
10
0
20
0
0
INSERT
2
PKG_9
8
0
10
0
20
0
41
-1
0
TEXT
8
LABEL_INFO
10
0
20
0
40
0.56
1
0 0 1 1 0 1
72
1
73
1
11
0
21
0
41
0.75
7
W0$127
0
TEXT
8
LABEL_ATTRIBUTE
10
0
20
0
40
0.56
1
Value
72
1
73
1
11
0
21
0
41
0.75
7
W0$127
0
TEXT
8
ATTRIBUTE_04
10
0
20
0
40
0.56
1
AZ5725-01F
72
1
73
2
11
0
21
0
41
0.75
7
W0$127
0
TEXT
8
LABEL_INFO
10
-0.527812
20
-0.066548
40
0.56
1
0 0 0 0 0 1
41
0.75
7
W0$0381
0
TEXT
8
LABEL_ATTRIBUTE
10
-0.527812
20
-0.066548
40
0.56
1
Ref.Des.
41
0.75
7
W0$0381
0
TEXT
8
PART_NAME_04
10
-0.527812
20
-0.066548
40
0.56
1
ED19
41
0.75
7
W0$0381
0
TEXT
8
LABEL_INFO
10
-1.699372
20
1.065566
40
0.889
1
0 0 0 0 0 1
41
0.75
7
W0$127
0
TEXT
8
LABEL_ATTRIBUTE
10
-1.699372
20
1.065566
40
0.889
1
Comment
41
0.75
7
W0$127
0
TEXT
8
ATTRIBUTE_04
10
-1.699372
20
1.065566
40
0.889
1
 
41
0.75
7
W0$127
0
TEXT
8
PART_TYPE_BOT
10
-1.699372
20
-0.204434
40
0.889
1
E0402N
41
0.75
7
W0$127
0
TEXT
8
PART_INFO
10
-1.699372
20
-1.474434
40
0.889
1
000000
71
2
41
0.75
7
W0$127
0
TEXT
8
PART_PTS
10
-1.699372
20
-2.744434
40
0.889
1
1 2 
71
2
41
0.75
7
W0$127
0
ENDBLK
0
BLOCK
2
PART_BOT_165
8
0
10
0
20
0
3
PART_BOT_165
70
64
0
INSERT
2
SYM_BOT_16
8
0
10
0
20
0
0
INSERT
2
PKG_9
8
0
10
0
20
0
41
-1
0
TEXT
8
LABEL_INFO
10
0
20
0
40
0.56
1
0 0 1 1 0 1
72
1
73
1
11
0
21
0
41
0.75
7
W0$127
0
TEXT
8
LABEL_ATTRIBUTE
10
0
20
0
40
0.56
1
Value
72
1
73
1
11
0
21
0
41
0.75
7
W0$127
0
TEXT
8
ATTRIBUTE_04
10
0
20
0
40
0.56
1
AZ5725-01F
72
1
73
2
11
0
21
0
41
0.75
7
W0$127
0
TEXT
8
LABEL_INFO
10
-0.527812
20
-0.066548
40
0.56
1
0 0 0 0 0 1
41
0.75
7
W0$0381
0
TEXT
8
LABEL_ATTRIBUTE
10
-0.527812
20
-0.066548
40
0.56
1
Ref.Des.
41
0.75
7
W0$0381
0
TEXT
8
PART_NAME_04
10
-0.527812
20
-0.066548
40
0.56
1
ED20
41
0.75
7
W0$0381
0
TEXT
8
LABEL_INFO
10
-1.699372
20
1.065566
40
0.889
1
0 0 0 0 0 1
41
0.75
7
W0$127
0
TEXT
8
LABEL_ATTRIBUTE
10
-1.699372
20
1.065566
40
0.889
1
Comment
41
0.75
7
W0$127
0
TEXT
8
ATTRIBUTE_04
10
-1.699372
20
1.065566
40
0.889
1
 
41
0.75
7
W0$127
0
TEXT
8
PART_TYPE_BOT
10
-1.699372
20
-0.204434
40
0.889
1
E0402N
41
0.75
7
W0$127
0
TEXT
8
PART_INFO
10
-1.699372
20
-1.474434
40
0.889
1
000000
71
2
41
0.75
7
W0$127
0
TEXT
8
PART_PTS
10
-1.699372
20
-2.744434
40
0.889
1
1 2 
71
2
41
0.75
7
W0$127
0
ENDBLK
0
BLOCK
2
PART_BOT_166
8
0
10
0
20
0
3
PART_BOT_166
70
64
0
INSERT
2
SYM_BOT_16
8
0
10
0
20
0
0
INSERT
2
PKG_9
8
0
10
0
20
0
41
-1
0
TEXT
8
LABEL_INFO
10
0
20
0
40
0.56
1
0 0 1 1 0 1
72
1
73
1
11
0
21
0
41
0.75
7
W0$127
0
TEXT
8
LABEL_ATTRIBUTE
10
0
20
0
40
0.56
1
Value
72
1
73
1
11
0
21
0
41
0.75
7
W0$127
0
TEXT
8
ATTRIBUTE_04
10
0
20
0
40
0.56
1
AZ5725-01F
72
1
73
2
11
0
21
0
41
0.75
7
W0$127
0
TEXT
8
LABEL_INFO
10
-0.527812
20
-0.066548
40
0.56
1
0 0 0 0 0 1
41
0.75
7
W0$0381
0
TEXT
8
LABEL_ATTRIBUTE
10
-0.527812
20
-0.066548
40
0.56
1
Ref.Des.
41
0.75
7
W0$0381
0
TEXT
8
PART_NAME_04
10
-0.527812
20
-0.066548
40
0.56
1
ED21
41
0.75
7
W0$0381
0
TEXT
8
LABEL_INFO
10
-1.699372
20
1.065566
40
0.889
1
0 0 0 0 0 1
41
0.75
7
W0$127
0
TEXT
8
LABEL_ATTRIBUTE
10
-1.699372
20
1.065566
40
0.889
1
Comment
41
0.75
7
W0$127
0
TEXT
8
ATTRIBUTE_04
10
-1.699372
20
1.065566
40
0.889
1
 
41
0.75
7
W0$127
0
TEXT
8
PART_TYPE_BOT
10
-1.699372
20
-0.204434
40
0.889
1
E0402N
41
0.75
7
W0$127
0
TEXT
8
PART_INFO
10
-1.699372
20
-1.474434
40
0.889
1
000000
71
2
41
0.75
7
W0$127
0
TEXT
8
PART_PTS
10
-1.699372
20
-2.744434
40
0.889
1
1 2 
71
2
41
0.75
7
W0$127
0
ENDBLK
0
BLOCK
2
PART_BOT_167
8
0
10
0
20
0
3
PART_BOT_167
70
64
0
INSERT
2
SYM_BOT_16
8
0
10
0
20
0
0
INSERT
2
PKG_9
8
0
10
0
20
0
41
-1
0
TEXT
8
LABEL_INFO
10
0
20
0
40
0.56
1
0 0 1 1 0 1
72
1
73
1
11
0
21
0
41
0.75
7
W0$127
0
TEXT
8
LABEL_ATTRIBUTE
10
0
20
0
40
0.56
1
Value
72
1
73
1
11
0
21
0
41
0.75
7
W0$127
0
TEXT
8
ATTRIBUTE_04
10
0
20
0
40
0.56
1
AZ5725-01F
72
1
73
2
11
0
21
0
41
0.75
7
W0$127
0
TEXT
8
LABEL_INFO
10
-0.527812
20
-0.066548
40
0.56
1
0 0 0 0 0 1
41
0.75
7
W0$0381
0
TEXT
8
LABEL_ATTRIBUTE
10
-0.527812
20
-0.066548
40
0.56
1
Ref.Des.
41
0.75
7
W0$0381
0
TEXT
8
PART_NAME_04
10
-0.527812
20
-0.066548
40
0.56
1
ED22
41
0.75
7
W0$0381
0
TEXT
8
LABEL_INFO
10
-1.699372
20
1.065566
40
0.889
1
0 0 0 0 0 1
41
0.75
7
W0$127
0
TEXT
8
LABEL_ATTRIBUTE
10
-1.699372
20
1.065566
40
0.889
1
Comment
41
0.75
7
W0$127
0
TEXT
8
ATTRIBUTE_04
10
-1.699372
20
1.065566
40
0.889
1
 
41
0.75
7
W0$127
0
TEXT
8
PART_TYPE_BOT
10
-1.699372
20
-0.204434
40
0.889
1
E0402N
41
0.75
7
W0$127
0
TEXT
8
PART_INFO
10
-1.699372
20
-1.474434
40
0.889
1
000000
71
2
41
0.75
7
W0$127
0
TEXT
8
PART_PTS
10
-1.699372
20
-2.744434
40
0.889
1
1 2 
71
2
41
0.75
7
W0$127
0
ENDBLK
0
BLOCK
2
PART_BOT_179
8
0
10
0
20
0
3
PART_BOT_179
70
64
0
INSERT
2
SYM_BOT_22
8
0
10
0
20
0
0
INSERT
2
PKG_15
8
0
10
0
20
0
41
-1
0
TEXT
8
LABEL_INFO
10
0
20
0
40
0.56
1
0 0 1 1 0 1
72
1
73
1
11
0
21
0
41
0.75
7
W0$127
0
TEXT
8
LABEL_ATTRIBUTE
10
0
20
0
40
0.56
1
Value
72
1
73
1
11
0
21
0
41
0.75
7
W0$127
0
TEXT
8
ATTRIBUTE_04
10
0
20
0
40
0.56
1
CON5
72
1
73
2
11
0
21
0
41
0.75
7
W0$127
0
TEXT
8
LABEL_INFO
10
-1.0668
20
0.6096
40
0.56
1
0 0 0 0 0 1
41
0.75
7
W0$0381
0
TEXT
8
LABEL_ATTRIBUTE
10
-1.0668
20
0.6096
40
0.56
1
Ref.Des.
41
0.75
7
W0$0381
0
TEXT
8
PART_NAME_04
10
-1.0668
20
0.6096
40
0.56
1
J11
41
0.75
7
W0$0381
0
TEXT
8
PART_TYPE_BOT
10
-1.0668
20
-0.1904
40
0.56
1
SDO-4030
41
0.75
7
W0$0381
0
TEXT
8
PART_INFO
10
-1.0668
20
-0.9904
40
0.56
1
000000
71
2
41
0.75
7
W0$0381
0
TEXT
8
PART_PTS
10
-1.0668
20
-1.7904
40
0.56
1
1 2 3 4 5 
71
2
41
0.75
7
W0$0381
0
ENDBLK
0
BLOCK
2
PART_BOT_187
8
0
10
0
20
0
3
PART_BOT_187
70
64
0
INSERT
2
SYM_BOT_30
8
0
10
0
20
0
0
INSERT
2
PKG_22
8
0
10
0
20
0
41
-1
0
TEXT
8
LABEL_INFO
10
0
20
0
40
0.56
1
0 0 1 1 0 1
72
1
73
1
11
0
21
0
41
0.75
7
W0$127
0
TEXT
8
LABEL_ATTRIBUTE
10
0
20
0
40
0.56
1
Value
72
1
73
1
11
0
21
0
41
0.75
7
W0$127
0
TEXT
8
ATTRIBUTE_04
10
0
20
0
40
0.56
1
CON2
72
1
73
2
11
0
21
0
41
0.75
7
W0$127
0
TEXT
8
LABEL_INFO
10
1.1376
20
-0.0124
40
0.56
1
0 0 0 0 0 1
41
0.75
7
W0$0381
0
TEXT
8
LABEL_ATTRIBUTE
10
1.1376
20
-0.0124
40
0.56
1
Ref.Des.
41
0.75
7
W0$0381
0
TEXT
8
PART_NAME_04
10
1.1376
20
-0.0124
40
0.56
1
J7
41
0.75
7
W0$0381
0
TEXT
8
LABEL_INFO
10
-0.75
20
1.725
40
0.889
1
0 0 0 2 0 1
73
2
11
-0.75
21
1.725
41
0.75
7
W0$127
0
TEXT
8
LABEL_ATTRIBUTE
10
-0.75
20
1.725
40
0.889
1
PartType
73
2
11
-0.75
21
1.725
41
0.75
7
W0$127
0
TEXT
8
PART_TYPE_04
10
-0.75
20
1.725
40
0.889
1
LD-020
73
3
11
-0.75
21
1.725
41
0.75
7
W0$127
0
TEXT
8
PART_INFO
10
-0.75
20
0.455
40
0.889
1
000010
71
2
73
3
11
-0.75
21
0.455
41
0.75
7
W0$127
0
TEXT
8
PART_PTS
10
-0.75
20
-0.815
40
0.889
1
1 2 3 4 5 6 7 8 9 
71
2
73
3
11
-0.75
21
-0.815
41
0.75
7
W0$127
0
ENDBLK
0
BLOCK
2
PART_BOT_190
8
0
10
0
20
0
3
PART_BOT_190
70
64
0
INSERT
2
SYM_BOT_33
8
0
10
0
20
0
0
INSERT
2
PKG_25
8
0
10
0
20
0
41
-1
0
TEXT
8
LABEL_INFO
10
0
20
0
40
0.56
1
0 0 1 1 0 1
72
1
73
1
11
0
21
0
41
0.75
7
W0$127
0
TEXT
8
LABEL_ATTRIBUTE
10
0
20
0
40
0.56
1
Value
72
1
73
1
11
0
21
0
41
0.75
7
W0$127
0
TEXT
8
ATTRIBUTE_04
10
0
20
0
40
0.56
1
4.7UH/3A
72
1
73
2
11
0
21
0
41
0.75
7
W0$127
0
TEXT
8
LABEL_INFO
10
14.2106666667
20
0.1976666667
40
0.889
1
0 0 0 2 0 1
73
2
11
14.2106666667
21
0.1976666667
41
0.75
7
W0$127
0
TEXT
8
LABEL_ATTRIBUTE
10
14.2106666667
20
0.1976666667
40
0.889
1
PartType
73
2
11
14.2106666667
21
0.1976666667
41
0.75
7
W0$127
0
TEXT
8
PART_TYPE_04
10
14.2106666667
20
0.1976666667
40
0.889
1
IND-6X6
73
3
11
14.2106666667
21
0.1976666667
41
0.75
7
W0$127
0
TEXT
8
LABEL_INFO
10
-0.5334
20
0.5334
40
0.56
1
0 486000000 0 0 0 1
50
270
41
0.75
7
W0$0381
0
TEXT
8
LABEL_ATTRIBUTE
10
-0.5334
20
0.5334
40
0.56
1
Ref.Des.
50
270
41
0.75
7
W0$0381
0
TEXT
8
PART_NAME_04
10
-0.5334
20
0.5334
40
0.56
1
L1
50
270
41
0.75
7
W0$0381
0
TEXT
8
PART_INFO
10
-0.5334
20
-0.2666
40
0.56
1
000000
71
2
50
270
41
0.75
7
W0$0381
0
TEXT
8
PART_PTS
10
-0.5334
20
-1.0666
40
0.56
1
1 2 
71
2
50
270
41
0.75
7
W0$0381
0
ENDBLK
0
BLOCK
2
PART_BOT_195
8
0
10
0
20
0
3
PART_BOT_195
70
64
0
INSERT
2
SYM_BOT_37
8
0
10
0
20
0
0
INSERT
2
PKG_29
8
0
10
0
20
0
41
-1
0
TEXT
8
LABEL_INFO
10
0
20
0
40
0.56
1
0 0 1 1 0 1
72
1
73
1
11
0
21
0
41
0.75
7
W0$127
0
TEXT
8
LABEL_ATTRIBUTE
10
0
20
0
40
0.56
1
Value
72
1
73
1
11
0
21
0
41
0.75
7
W0$127
0
TEXT
8
ATTRIBUTE_04
10
0
20
0
40
0.56
1
S8050
72
1
73
2
11
0
21
0
41
0.75
7
W0$127
0
TEXT
8
LABEL_INFO
10
-4.5151966667
20
1.853272
40
0.889
1
0 0 0 0 0 1
41
0.75
7
W0$127
0
TEXT
8
LABEL_ATTRIBUTE
10
-4.5151966667
20
1.853272
40
0.889
1
Comment
41
0.75
7
W0$127
0
TEXT
8
ATTRIBUTE_129
10
-4.5151966667
20
1.853272
40
0.889
1
 
41
0.75
7
W0$127
0
TEXT
8
LABEL_INFO
10
-0.6095993333
20
-0.2286
40
0.56
1
0 0 0 0 0 1
41
0.75
7
W0$0381
0
TEXT
8
LABEL_ATTRIBUTE
10
-0.6095993333
20
-0.2286
40
0.56
1
Ref.Des.
41
0.75
7
W0$0381
0
TEXT
8
PART_NAME_04
10
-0.6095993333
20
-0.2286
40
0.56
1
Q1
41
0.75
7
W0$0381
0
TEXT
8
PART_TYPE_BOT
10
-0.6095993333
20
-1.0286
40
0.56
1
SOT_23
41
0.75
7
W0$0381
0
TEXT
8
PART_INFO
10
-0.6095993333
20
-1.8286
40
0.56
1
000000
71
2
41
0.75
7
W0$0381
0
TEXT
8
PART_PTS
10
-0.6095993333
20
-2.6286
40
0.56
1
1 2 3 
71
2
41
0.75
7
W0$0381
0
ENDBLK
0
BLOCK
2
PART_BOT_196
8
0
10
0
20
0
3
PART_BOT_196
70
64
0
INSERT
2
SYM_BOT_37
8
0
10
0
20
0
0
INSERT
2
PKG_29
8
0
10
0
20
0
41
-1
0
TEXT
8
LABEL_INFO
10
0
20
0
40
0.56
1
0 0 1 1 0 1
72
1
73
1
11
0
21
0
41
0.75
7
W0$127
0
TEXT
8
LABEL_ATTRIBUTE
10
0
20
0
40
0.56
1
Value
72
1
73
1
11
0
21
0
41
0.75
7
W0$127
0
TEXT
8
ATTRIBUTE_04
10
0
20
0
40
0.56
1
S8050
72
1
73
2
11
0
21
0
41
0.75
7
W0$127
0
TEXT
8
LABEL_INFO
10
-4.5151966667
20
1.853272
40
0.889
1
0 0 0 0 0 1
41
0.75
7
W0$127
0
TEXT
8
LABEL_ATTRIBUTE
10
-4.5151966667
20
1.853272
40
0.889
1
Comment
41
0.75
7
W0$127
0
TEXT
8
ATTRIBUTE_129
10
-4.5151966667
20
1.853272
40
0.889
1
 
41
0.75
7
W0$127
0
TEXT
8
LABEL_INFO
10
-0.6095993333
20
-0.2286
40
0.56
1
0 0 0 0 0 1
41
0.75
7
W0$0381
0
TEXT
8
LABEL_ATTRIBUTE
10
-0.6095993333
20
-0.2286
40
0.56
1
Ref.Des.
41
0.75
7
W0$0381
0
TEXT
8
PART_NAME_04
10
-0.6095993333
20
-0.2286
40
0.56
1
Q2
41
0.75
7
W0$0381
0
TEXT
8
PART_TYPE_BOT
10
-0.6095993333
20
-1.0286
40
0.56
1
SOT_23
41
0.75
7
W0$0381
0
TEXT
8
PART_INFO
10
-0.6095993333
20
-1.8286
40
0.56
1
000000
71
2
41
0.75
7
W0$0381
0
TEXT
8
PART_PTS
10
-0.6095993333
20
-2.6286
40
0.56
1
1 2 3 
71
2
41
0.75
7
W0$0381
0
ENDBLK
0
BLOCK
2
PART_BOT_197
8
0
10
0
20
0
3
PART_BOT_197
70
64
0
INSERT
2
SYM_BOT_38
8
0
10
0
20
0
0
INSERT
2
PKG_30
8
0
10
0
20
0
41
-1
0
TEXT
8
LABEL_INFO
10
0
20
0
40
0.56
1
0 0 1 1 0 1
72
1
73
1
11
0
21
0
41
0.75
7
W0$127
0
TEXT
8
LABEL_ATTRIBUTE
10
0
20
0
40
0.56
1
Value
72
1
73
1
11
0
21
0
41
0.75
7
W0$127
0
TEXT
8
ATTRIBUTE_04
10
0
20
0
40
0.56
1
S8050
72
1
73
2
11
0
21
0
41
0.75
7
W0$127
0
TEXT
8
LABEL_INFO
10
0.6096
20
0.1778
40
0.56
1
0 324000000 0 0 0 1
50
180
41
0.75
7
W0$0381
0
TEXT
8
LABEL_ATTRIBUTE
10
0.6096
20
0.1778
40
0.56
1
Ref.Des.
50
180
41
0.75
7
W0$0381
0
TEXT
8
PART_NAME_04
10
0.6096
20
0.1778
40
0.56
1
Q3
50
180
41
0.75
7
W0$0381
0
TEXT
8
LABEL_INFO
10
-1.57452
20
1.8842986667
40
0.889
1
0 0 0 0 0 1
41
0.75
7
W0$127
0
TEXT
8
LABEL_ATTRIBUTE
10
-1.57452
20
1.8842986667
40
0.889
1
Comment
41
0.75
7
W0$127
0
TEXT
8
ATTRIBUTE_04
10
-1.57452
20
1.8842986667
40
0.889
1
 
41
0.75
7
W0$127
0
TEXT
8
PART_TYPE_BOT
10
-1.57452
20
0.6142986667
40
0.889
1
SOT23
41
0.75
7
W0$127
0
TEXT
8
PART_INFO
10
-1.57452
20
-0.6557013333
40
0.889
1
000000
71
2
41
0.75
7
W0$127
0
TEXT
8
PART_PTS
10
-1.57452
20
-1.9257013333
40
0.889
1
1 2 3 
71
2
41
0.75
7
W0$127
0
ENDBLK
0
BLOCK
2
PART_BOT_198
8
0
10
0
20
0
3
PART_BOT_198
70
64
0
INSERT
2
SYM_BOT_37
8
0
10
0
20
0
0
INSERT
2
PKG_29
8
0
10
0
20
0
41
-1
0
TEXT
8
LABEL_INFO
10
0
20
0
40
0.56
1
0 0 1 1 0 1
72
1
73
1
11
0
21
0
41
0.75
7
W0$127
0
TEXT
8
LABEL_ATTRIBUTE
10
0
20
0
40
0.56
1
Value
72
1
73
1
11
0
21
0
41
0.75
7
W0$127
0
TEXT
8
ATTRIBUTE_04
10
0
20
0
40
0.56
1
S8050
72
1
73
2
11
0
21
0
41
0.75
7
W0$127
0
TEXT
8
LABEL_INFO
10
-4.5151966667
20
1.853272
40
0.889
1
0 0 0 0 0 1
41
0.75
7
W0$127
0
TEXT
8
LABEL_ATTRIBUTE
10
-4.5151966667
20
1.853272
40
0.889
1
Comment
41
0.75
7
W0$127
0
TEXT
8
ATTRIBUTE_129
10
-4.5151966667
20
1.853272
40
0.889
1
 
41
0.75
7
W0$127
0
TEXT
8
LABEL_INFO
10
0.3809993333
20
0.381
40
0.56
1
0 324000000 0 0 0 1
50
180
41
0.75
7
W0$0381
0
TEXT
8
LABEL_ATTRIBUTE
10
0.3809993333
20
0.381
40
0.56
1
Ref.Des.
50
180
41
0.75
7
W0$0381
0
TEXT
8
PART_NAME_04
10
0.3809993333
20
0.381
40
0.56
1
Q4
50
180
41
0.75
7
W0$0381
0
TEXT
8
PART_TYPE_BOT
10
0.3809993333
20
-0.419
40
0.56
1
SOT_23
50
180
41
0.75
7
W0$0381
0
TEXT
8
PART_INFO
10
0.3809993333
20
-1.219
40
0.56
1
000000
71
2
50
180
41
0.75
7
W0$0381
0
TEXT
8
PART_PTS
10
0.3809993333
20
-2.019
40
0.56
1
1 2 3 
71
2
50
180
41
0.75
7
W0$0381
0
ENDBLK
0
BLOCK
2
PART_BOT_208
8
0
10
0
20
0
3
PART_BOT_208
70
64
0
INSERT
2
SYM_BOT_19
8
0
10
0
20
0
0
INSERT
2
PKG_12
8
0
10
0
20
0
41
-1
0
TEXT
8
LABEL_INFO
10
0
20
0
40
0.56
1
0 0 1 1 0 1
72
1
73
1
11
0
21
0
41
0.75
7
W0$127
0
TEXT
8
LABEL_ATTRIBUTE
10
0
20
0
40
0.56
1
Value
72
1
73
1
11
0
21
0
41
0.75
7
W0$127
0
TEXT
8
ATTRIBUTE_04
10
0
20
0
40
0.56
1
10K
72
1
73
2
11
0
21
0
41
0.75
7
W0$127
0
TEXT
8
LABEL_INFO
10
-0.598
20
-0.155
40
0.56
1
0 0 0 0 0 1
41
0.75
7
W0$0381
0
TEXT
8
LABEL_ATTRIBUTE
10
-0.598
20
-0.155
40
0.56
1
Ref.Des.
41
0.75
7
W0$0381
0
TEXT
8
PART_NAME_04
10
-0.598
20
-0.155
40
0.56
1
R76
41
0.75
7
W0$0381
0
TEXT
8
LABEL_INFO
10
-0.963498
20
0.6666986667
40
0.889
1
0 0 0 0 0 1
41
0.75
7
W0$127
0
TEXT
8
LABEL_ATTRIBUTE
10
-0.963498
20
0.6666986667
40
0.889
1
Comment
41
0.75
7
W0$127
0
TEXT
8
ATTRIBUTE_04
10
-0.963498
20
0.6666986667
40
0.889
1
 
41
0.75
7
W0$127
0
TEXT
8
PART_TYPE_BOT
10
-0.963498
20
-0.6033013333
40
0.889
1
R0402
41
0.75
7
W0$127
0
TEXT
8
PART_INFO
10
-0.963498
20
-1.8733013333
40
0.889
1
000000
71
2
41
0.75
7
W0$127
0
TEXT
8
PART_PTS
10
-0.963498
20
-3.1433013333
40
0.889
1
1 2 
71
2
41
0.75
7
W0$127
0
ENDBLK
0
BLOCK
2
PART_BOT_212
8
0
10
0
20
0
3
PART_BOT_212
70
64
0
INSERT
2
SYM_BOT_19
8
0
10
0
20
0
0
INSERT
2
PKG_12
8
0
10
0
20
0
41
-1
0
TEXT
8
LABEL_INFO
10
0
20
0
40
0.56
1
0 0 1 1 0 1
72
1
73
1
11
0
21
0
41
0.75
7
W0$127
0
TEXT
8
LABEL_ATTRIBUTE
10
0
20
0
40
0.56
1
Value
72
1
73
1
11
0
21
0
41
0.75
7
W0$127
0
TEXT
8
ATTRIBUTE_04
10
0
20
0
40
0.56
1
10K
72
1
73
2
11
0
21
0
41
0.75
7
W0$127
0
TEXT
8
LABEL_INFO
10
-0.598
20
-0.155
40
0.56
1
0 0 0 0 0 1
41
0.75
7
W0$0381
0
TEXT
8
LABEL_ATTRIBUTE
10
-0.598
20
-0.155
40
0.56
1
Ref.Des.
41
0.75
7
W0$0381
0
TEXT
8
PART_NAME_04
10
-0.598
20
-0.155
40
0.56
1
R73
41
0.75
7
W0$0381
0
TEXT
8
LABEL_INFO
10
-0.963498
20
0.6666986667
40
0.889
1
0 0 0 0 0 1
41
0.75
7
W0$127
0
TEXT
8
LABEL_ATTRIBUTE
10
-0.963498
20
0.6666986667
40
0.889
1
Comment
41
0.75
7
W0$127
0
TEXT
8
ATTRIBUTE_04
10
-0.963498
20
0.6666986667
40
0.889
1
 
41
0.75
7
W0$127
0
TEXT
8
PART_TYPE_BOT
10
-0.963498
20
-0.6033013333
40
0.889
1
R0402
41
0.75
7
W0$127
0
TEXT
8
PART_INFO
10
-0.963498
20
-1.8733013333
40
0.889
1
000000
71
2
41
0.75
7
W0$127
0
TEXT
8
PART_PTS
10
-0.963498
20
-3.1433013333
40
0.889
1
1 2 
71
2
41
0.75
7
W0$127
0
ENDBLK
0
BLOCK
2
PART_BOT_213
8
0
10
0
20
0
3
PART_BOT_213
70
64
0
INSERT
2
SYM_BOT_19
8
0
10
0
20
0
0
INSERT
2
PKG_12
8
0
10
0
20
0
41
-1
0
TEXT
8
LABEL_INFO
10
0
20
0
40
0.56
1
0 0 1 1 0 1
72
1
73
1
11
0
21
0
41
0.75
7
W0$127
0
TEXT
8
LABEL_ATTRIBUTE
10
0
20
0
40
0.56
1
Value
72
1
73
1
11
0
21
0
41
0.75
7
W0$127
0
TEXT
8
ATTRIBUTE_04
10
0
20
0
40
0.56
1
10K
72
1
73
2
11
0
21
0
41
0.75
7
W0$127
0
TEXT
8
LABEL_INFO
10
-0.545
20
-0.33
40
0.56
1
0 0 0 0 0 1
41
0.75
7
W0$0381
0
TEXT
8
LABEL_ATTRIBUTE
10
-0.545
20
-0.33
40
0.56
1
Ref.Des.
41
0.75
7
W0$0381
0
TEXT
8
PART_NAME_04
10
-0.545
20
-0.33
40
0.56
1
R65
41
0.75
7
W0$0381
0
TEXT
8
LABEL_INFO
10
-0.963498
20
0.6666986667
40
0.889
1
0 0 0 0 0 1
41
0.75
7
W0$127
0
TEXT
8
LABEL_ATTRIBUTE
10
-0.963498
20
0.6666986667
40
0.889
1
Comment
41
0.75
7
W0$127
0
TEXT
8
ATTRIBUTE_04
10
-0.963498
20
0.6666986667
40
0.889
1
 
41
0.75
7
W0$127
0
TEXT
8
PART_TYPE_BOT
10
-0.963498
20
-0.6033013333
40
0.889
1
R0402
41
0.75
7
W0$127
0
TEXT
8
PART_INFO
10
-0.963498
20
-1.8733013333
40
0.889
1
000000
71
2
41
0.75
7
W0$127
0
TEXT
8
PART_PTS
10
-0.963498
20
-3.1433013333
40
0.889
1
1 2 
71
2
41
0.75
7
W0$127
0
ENDBLK
0
BLOCK
2
PART_BOT_214
8
0
10
0
20
0
3
PART_BOT_214
70
64
0
INSERT
2
SYM_BOT_19
8
0
10
0
20
0
0
INSERT
2
PKG_12
8
0
10
0
20
0
41
-1
0
TEXT
8
LABEL_INFO
10
0
20
0
40
0.56
1
0 0 1 1 0 1
72
1
73
1
11
0
21
0
41
0.75
7
W0$127
0
TEXT
8
LABEL_ATTRIBUTE
10
0
20
0
40
0.56
1
Value
72
1
73
1
11
0
21
0
41
0.75
7
W0$127
0
TEXT
8
ATTRIBUTE_04
10
0
20
0
40
0.56
1
2K2
72
1
73
2
11
0
21
0
41
0.75
7
W0$127
0
TEXT
8
LABEL_INFO
10
-0.598
20
-0.155
40
0.56
1
0 0 0 0 0 1
41
0.75
7
W0$0381
0
TEXT
8
LABEL_ATTRIBUTE
10
-0.598
20
-0.155
40
0.56
1
Ref.Des.
41
0.75
7
W0$0381
0
TEXT
8
PART_NAME_04
10
-0.598
20
-0.155
40
0.56
1
R69
41
0.75
7
W0$0381
0
TEXT
8
LABEL_INFO
10
-0.963498
20
0.6666986667
40
0.889
1
0 0 0 0 0 1
41
0.75
7
W0$127
0
TEXT
8
LABEL_ATTRIBUTE
10
-0.963498
20
0.6666986667
40
0.889
1
Comment
41
0.75
7
W0$127
0
TEXT
8
ATTRIBUTE_04
10
-0.963498
20
0.6666986667
40
0.889
1
 
41
0.75
7
W0$127
0
TEXT
8
PART_TYPE_BOT
10
-0.963498
20
-0.6033013333
40
0.889
1
R0402
41
0.75
7
W0$127
0
TEXT
8
PART_INFO
10
-0.963498
20
-1.8733013333
40
0.889
1
000000
71
2
41
0.75
7
W0$127
0
TEXT
8
PART_PTS
10
-0.963498
20
-3.1433013333
40
0.889
1
1 2 
71
2
41
0.75
7
W0$127
0
ENDBLK
0
BLOCK
2
PART_BOT_218
8
0
10
0
20
0
3
PART_BOT_218
70
64
0
INSERT
2
SYM_BOT_19
8
0
10
0
20
0
0
INSERT
2
PKG_12
8
0
10
0
20
0
41
-1
0
TEXT
8
LABEL_INFO
10
0
20
0
40
0.56
1
0 0 1 1 0 1
72
1
73
1
11
0
21
0
41
0.75
7
W0$127
0
TEXT
8
LABEL_ATTRIBUTE
10
0
20
0
40
0.56
1
Value
72
1
73
1
11
0
21
0
41
0.75
7
W0$127
0
TEXT
8
ATTRIBUTE_04
10
0
20
0
40
0.56
1
0R
72
1
73
2
11
0
21
0
41
0.75
7
W0$127
0
TEXT
8
LABEL_INFO
10
-0.598
20
-0.155
40
0.56
1
0 0 0 0 0 1
41
0.75
7
W0$0381
0
TEXT
8
LABEL_ATTRIBUTE
10
-0.598
20
-0.155
40
0.56
1
Ref.Des.
41
0.75
7
W0$0381
0
TEXT
8
PART_NAME_04
10
-0.598
20
-0.155
40
0.56
1
R66
41
0.75
7
W0$0381
0
TEXT
8
LABEL_INFO
10
-0.963498
20
0.6666986667
40
0.889
1
0 0 0 0 0 1
41
0.75
7
W0$127
0
TEXT
8
LABEL_ATTRIBUTE
10
-0.963498
20
0.6666986667
40
0.889
1
Comment
41
0.75
7
W0$127
0
TEXT
8
ATTRIBUTE_04
10
-0.963498
20
0.6666986667
40
0.889
1
 
41
0.75
7
W0$127
0
TEXT
8
PART_TYPE_BOT
10
-0.963498
20
-0.6033013333
40
0.889
1
R0402
41
0.75
7
W0$127
0
TEXT
8
PART_INFO
10
-0.963498
20
-1.8733013333
40
0.889
1
000000
71
2
41
0.75
7
W0$127
0
TEXT
8
PART_PTS
10
-0.963498
20
-3.1433013333
40
0.889
1
1 2 
71
2
41
0.75
7
W0$127
0
ENDBLK
0
BLOCK
2
PART_BOT_219
8
0
10
0
20
0
3
PART_BOT_219
70
64
0
INSERT
2
SYM_BOT_19
8
0
10
0
20
0
0
INSERT
2
PKG_12
8
0
10
0
20
0
41
-1
0
TEXT
8
LABEL_INFO
10
0
20
0
40
0.56
1
0 0 1 1 0 1
72
1
73
1
11
0
21
0
41
0.75
7
W0$127
0
TEXT
8
LABEL_ATTRIBUTE
10
0
20
0
40
0.56
1
Value
72
1
73
1
11
0
21
0
41
0.75
7
W0$127
0
TEXT
8
ATTRIBUTE_04
10
0
20
0
40
0.56
1
0R
72
1
73
2
11
0
21
0
41
0.75
7
W0$127
0
TEXT
8
LABEL_INFO
10
-0.598
20
-0.155
40
0.56
1
0 0 0 0 0 1
41
0.75
7
W0$0381
0
TEXT
8
LABEL_ATTRIBUTE
10
-0.598
20
-0.155
40
0.56
1
Ref.Des.
41
0.75
7
W0$0381
0
TEXT
8
PART_NAME_04
10
-0.598
20
-0.155
40
0.56
1
R72
41
0.75
7
W0$0381
0
TEXT
8
LABEL_INFO
10
-0.963498
20
0.6666986667
40
0.889
1
0 0 0 0 0 1
41
0.75
7
W0$127
0
TEXT
8
LABEL_ATTRIBUTE
10
-0.963498
20
0.6666986667
40
0.889
1
Comment
41
0.75
7
W0$127
0
TEXT
8
ATTRIBUTE_04
10
-0.963498
20
0.6666986667
40
0.889
1
 
41
0.75
7
W0$127
0
TEXT
8
PART_TYPE_BOT
10
-0.963498
20
-0.6033013333
40
0.889
1
R0402
41
0.75
7
W0$127
0
TEXT
8
PART_INFO
10
-0.963498
20
-1.8733013333
40
0.889
1
000000
71
2
41
0.75
7
W0$127
0
TEXT
8
PART_PTS
10
-0.963498
20
-3.1433013333
40
0.889
1
1 2 
71
2
41
0.75
7
W0$127
0
ENDBLK
0
BLOCK
2
PART_BOT_220
8
0
10
0
20
0
3
PART_BOT_220
70
64
0
INSERT
2
SYM_BOT_19
8
0
10
0
20
0
0
INSERT
2
PKG_12
8
0
10
0
20
0
41
-1
0
TEXT
8
LABEL_INFO
10
0
20
0
40
0.56
1
0 0 1 1 0 1
72
1
73
1
11
0
21
0
41
0.75
7
W0$127
0
TEXT
8
LABEL_ATTRIBUTE
10
0
20
0
40
0.56
1
Value
72
1
73
1
11
0
21
0
41
0.75
7
W0$127
0
TEXT
8
ATTRIBUTE_04
10
0
20
0
40
0.56
1
100K
72
1
73
2
11
0
21
0
41
0.75
7
W0$127
0
TEXT
8
LABEL_INFO
10
-0.7366
20
-0.1778
40
0.56
1
0 0 0 0 0 1
41
0.75
7
W0$0381
0
TEXT
8
LABEL_ATTRIBUTE
10
-0.7366
20
-0.1778
40
0.56
1
Ref.Des.
41
0.75
7
W0$0381
0
TEXT
8
PART_NAME_04
10
-0.7366
20
-0.1778
40
0.56
1
R24
41
0.75
7
W0$0381
0
TEXT
8
LABEL_INFO
10
-0.963498
20
0.6666986667
40
0.889
1
0 0 0 0 0 1
41
0.75
7
W0$127
0
TEXT
8
LABEL_ATTRIBUTE
10
-0.963498
20
0.6666986667
40
0.889
1
Comment
41
0.75
7
W0$127
0
TEXT
8
ATTRIBUTE_04
10
-0.963498
20
0.6666986667
40
0.889
1
 
41
0.75
7
W0$127
0
TEXT
8
PART_TYPE_BOT
10
-0.963498
20
-0.6033013333
40
0.889
1
R0402
41
0.75
7
W0$127
0
TEXT
8
PART_INFO
10
-0.963498
20
-1.8733013333
40
0.889
1
000000
71
2
41
0.75
7
W0$127
0
TEXT
8
PART_PTS
10
-0.963498
20
-3.1433013333
40
0.889
1
1 2 
71
2
41
0.75
7
W0$127
0
ENDBLK
0
BLOCK
2
PART_BOT_221
8
0
10
0
20
0
3
PART_BOT_221
70
64
0
INSERT
2
SYM_BOT_19
8
0
10
0
20
0
0
INSERT
2
PKG_12
8
0
10
0
20
0
41
-1
0
TEXT
8
LABEL_INFO
10
0
20
0
40
0.56
1
0 0 1 1 0 1
72
1
73
1
11
0
21
0
41
0.75
7
W0$127
0
TEXT
8
LABEL_ATTRIBUTE
10
0
20
0
40
0.56
1
Value
72
1
73
1
11
0
21
0
41
0.75
7
W0$127
0
TEXT
8
ATTRIBUTE_04
10
0
20
0
40
0.56
1
15K%1
72
1
73
2
11
0
21
0
41
0.75
7
W0$127
0
TEXT
8
LABEL_INFO
10
-0.7366
20
-0.1778
40
0.56
1
0 0 0 0 0 1
41
0.75
7
W0$0381
0
TEXT
8
LABEL_ATTRIBUTE
10
-0.7366
20
-0.1778
40
0.56
1
Ref.Des.
41
0.75
7
W0$0381
0
TEXT
8
PART_NAME_04
10
-0.7366
20
-0.1778
40
0.56
1
R27
41
0.75
7
W0$0381
0
TEXT
8
LABEL_INFO
10
-0.963498
20
0.6666986667
40
0.889
1
0 0 0 0 0 1
41
0.75
7
W0$127
0
TEXT
8
LABEL_ATTRIBUTE
10
-0.963498
20
0.6666986667
40
0.889
1
Comment
41
0.75
7
W0$127
0
TEXT
8
ATTRIBUTE_04
10
-0.963498
20
0.6666986667
40
0.889
1
 
41
0.75
7
W0$127
0
TEXT
8
PART_TYPE_BOT
10
-0.963498
20
-0.6033013333
40
0.889
1
R0402
41
0.75
7
W0$127
0
TEXT
8
PART_INFO
10
-0.963498
20
-1.8733013333
40
0.889
1
000000
71
2
41
0.75
7
W0$127
0
TEXT
8
PART_PTS
10
-0.963498
20
-3.1433013333
40
0.889
1
1 2 
71
2
41
0.75
7
W0$127
0
ENDBLK
0
BLOCK
2
PART_BOT_222
8
0
10
0
20
0
3
PART_BOT_222
70
64
0
INSERT
2
SYM_BOT_19
8
0
10
0
20
0
0
INSERT
2
PKG_12
8
0
10
0
20
0
41
-1
0
TEXT
8
LABEL_INFO
10
0
20
0
40
0.56
1
0 0 1 1 0 1
72
1
73
1
11
0
21
0
41
0.75
7
W0$127
0
TEXT
8
LABEL_ATTRIBUTE
10
0
20
0
40
0.56
1
Value
72
1
73
1
11
0
21
0
41
0.75
7
W0$127
0
TEXT
8
ATTRIBUTE_04
10
0
20
0
40
0.56
1
15K%1
72
1
73
2
11
0
21
0
41
0.75
7
W0$127
0
TEXT
8
LABEL_INFO
10
-0.7874
20
-0.1524
40
0.56
1
0 0 0 0 0 1
41
0.75
7
W0$0381
0
TEXT
8
LABEL_ATTRIBUTE
10
-0.7874
20
-0.1524
40
0.56
1
Ref.Des.
41
0.75
7
W0$0381
0
TEXT
8
PART_NAME_04
10
-0.7874
20
-0.1524
40
0.56
1
R25
41
0.75
7
W0$0381
0
TEXT
8
LABEL_INFO
10
-0.963498
20
0.6666986667
40
0.889
1
0 0 0 0 0 1
41
0.75
7
W0$127
0
TEXT
8
LABEL_ATTRIBUTE
10
-0.963498
20
0.6666986667
40
0.889
1
Comment
41
0.75
7
W0$127
0
TEXT
8
ATTRIBUTE_04
10
-0.963498
20
0.6666986667
40
0.889
1
 
41
0.75
7
W0$127
0
TEXT
8
PART_TYPE_BOT
10
-0.963498
20
-0.6033013333
40
0.889
1
R0402
41
0.75
7
W0$127
0
TEXT
8
PART_INFO
10
-0.963498
20
-1.8733013333
40
0.889
1
000000
71
2
41
0.75
7
W0$127
0
TEXT
8
PART_PTS
10
-0.963498
20
-3.1433013333
40
0.889
1
1 2 
71
2
41
0.75
7
W0$127
0
ENDBLK
0
BLOCK
2
PART_BOT_223
8
0
10
0
20
0
3
PART_BOT_223
70
64
0
INSERT
2
SYM_BOT_19
8
0
10
0
20
0
0
INSERT
2
PKG_12
8
0
10
0
20
0
41
-1
0
TEXT
8
LABEL_INFO
10
0
20
0
40
0.56
1
0 0 1 1 0 1
72
1
73
1
11
0
21
0
41
0.75
7
W0$127
0
TEXT
8
LABEL_ATTRIBUTE
10
0
20
0
40
0.56
1
Value
72
1
73
1
11
0
21
0
41
0.75
7
W0$127
0
TEXT
8
ATTRIBUTE_04
10
0
20
0
40
0.56
1
10K
72
1
73
2
11
0
21
0
41
0.75
7
W0$127
0
TEXT
8
LABEL_INFO
10
0.7112
20
0.1524
40
0.56
1
0 324000000 0 0 0 1
50
180
41
0.75
7
W0$0381
0
TEXT
8
LABEL_ATTRIBUTE
10
0.7112
20
0.1524
40
0.56
1
Ref.Des.
50
180
41
0.75
7
W0$0381
0
TEXT
8
PART_NAME_04
10
0.7112
20
0.1524
40
0.56
1
R26
50
180
41
0.75
7
W0$0381
0
TEXT
8
LABEL_INFO
10
-0.963498
20
0.6666986667
40
0.889
1
0 0 0 0 0 1
41
0.75
7
W0$127
0
TEXT
8
LABEL_ATTRIBUTE
10
-0.963498
20
0.6666986667
40
0.889
1
Comment
41
0.75
7
W0$127
0
TEXT
8
ATTRIBUTE_04
10
-0.963498
20
0.6666986667
40
0.889
1
 
41
0.75
7
W0$127
0
TEXT
8
PART_TYPE_BOT
10
-0.963498
20
-0.6033013333
40
0.889
1
R0402
41
0.75
7
W0$127
0
TEXT
8
PART_INFO
10
-0.963498
20
-1.8733013333
40
0.889
1
000000
71
2
41
0.75
7
W0$127
0
TEXT
8
PART_PTS
10
-0.963498
20
-3.1433013333
40
0.889
1
1 2 
71
2
41
0.75
7
W0$127
0
ENDBLK
0
BLOCK
2
PART_BOT_224
8
0
10
0
20
0
3
PART_BOT_224
70
64
0
INSERT
2
SYM_BOT_19
8
0
10
0
20
0
0
INSERT
2
PKG_12
8
0
10
0
20
0
41
-1
0
TEXT
8
LABEL_INFO
10
0
20
0
40
0.56
1
0 0 1 1 0 1
72
1
73
1
11
0
21
0
41
0.75
7
W0$127
0
TEXT
8
LABEL_ATTRIBUTE
10
0
20
0
40
0.56
1
Value
72
1
73
1
11
0
21
0
41
0.75
7
W0$127
0
TEXT
8
ATTRIBUTE_04
10
0
20
0
40
0.56
1
10R
72
1
73
2
11
0
21
0
41
0.75
7
W0$127
0
TEXT
8
LABEL_INFO
10
-0.598
20
-0.155
40
0.56
1
0 0 0 0 0 1
41
0.75
7
W0$0381
0
TEXT
8
LABEL_ATTRIBUTE
10
-0.598
20
-0.155
40
0.56
1
Ref.Des.
41
0.75
7
W0$0381
0
TEXT
8
PART_NAME_04
10
-0.598
20
-0.155
40
0.56
1
R22
41
0.75
7
W0$0381
0
TEXT
8
LABEL_INFO
10
-0.963498
20
0.6666986667
40
0.889
1
0 0 0 0 0 1
41
0.75
7
W0$127
0
TEXT
8
LABEL_ATTRIBUTE
10
-0.963498
20
0.6666986667
40
0.889
1
Comment
41
0.75
7
W0$127
0
TEXT
8
ATTRIBUTE_04
10
-0.963498
20
0.6666986667
40
0.889
1
 
41
0.75
7
W0$127
0
TEXT
8
PART_TYPE_BOT
10
-0.963498
20
-0.6033013333
40
0.889
1
R0402
41
0.75
7
W0$127
0
TEXT
8
PART_INFO
10
-0.963498
20
-1.8733013333
40
0.889
1
000000
71
2
41
0.75
7
W0$127
0
TEXT
8
PART_PTS
10
-0.963498
20
-3.1433013333
40
0.889
1
1 2 
71
2
41
0.75
7
W0$127
0
ENDBLK
0
BLOCK
2
PART_BOT_225
8
0
10
0
20
0
3
PART_BOT_225
70
64
0
INSERT
2
SYM_BOT_19
8
0
10
0
20
0
0
INSERT
2
PKG_12
8
0
10
0
20
0
41
-1
0
TEXT
8
LABEL_INFO
10
0
20
0
40
0.56
1
0 0 1 1 0 1
72
1
73
1
11
0
21
0
41
0.75
7
W0$127
0
TEXT
8
LABEL_ATTRIBUTE
10
0
20
0
40
0.56
1
Value
72
1
73
1
11
0
21
0
41
0.75
7
W0$127
0
TEXT
8
ATTRIBUTE_04
10
0
20
0
40
0.56
1
47K%1
72
1
73
2
11
0
21
0
41
0.75
7
W0$127
0
TEXT
8
LABEL_INFO
10
0.7112
20
0.1524
40
0.56
1
0 324000000 0 0 0 1
50
180
41
0.75
7
W0$0381
0
TEXT
8
LABEL_ATTRIBUTE
10
0.7112
20
0.1524
40
0.56
1
Ref.Des.
50
180
41
0.75
7
W0$0381
0
TEXT
8
PART_NAME_04
10
0.7112
20
0.1524
40
0.56
1
R23
50
180
41
0.75
7
W0$0381
0
TEXT
8
LABEL_INFO
10
-0.963498
20
0.6666986667
40
0.889
1
0 0 0 0 0 1
41
0.75
7
W0$127
0
TEXT
8
LABEL_ATTRIBUTE
10
-0.963498
20
0.6666986667
40
0.889
1
Comment
41
0.75
7
W0$127
0
TEXT
8
ATTRIBUTE_04
10
-0.963498
20
0.6666986667
40
0.889
1
 
41
0.75
7
W0$127
0
TEXT
8
PART_TYPE_BOT
10
-0.963498
20
-0.6033013333
40
0.889
1
R0402
41
0.75
7
W0$127
0
TEXT
8
PART_INFO
10
-0.963498
20
-1.8733013333
40
0.889
1
000000
71
2
41
0.75
7
W0$127
0
TEXT
8
PART_PTS
10
-0.963498
20
-3.1433013333
40
0.889
1
1 2 
71
2
41
0.75
7
W0$127
0
ENDBLK
0
BLOCK
2
PART_BOT_226
8
0
10
0
20
0
3
PART_BOT_226
70
64
0
INSERT
2
SYM_BOT_42
8
0
10
0
20
0
0
INSERT
2
PKG_34
8
0
10
0
20
0
41
-1
0
TEXT
8
LABEL_INFO
10
0
20
0
40
0.56
1
0 0 1 1 0 1
72
1
73
1
11
0
21
0
41
0.75
7
W0$127
0
TEXT
8
LABEL_ATTRIBUTE
10
0
20
0
40
0.56
1
Value
72
1
73
1
11
0
21
0
41
0.75
7
W0$127
0
TEXT
8
ATTRIBUTE_04
10
0
20
0
40
0.56
1
NC
72
1
73
2
11
0
21
0
41
0.75
7
W0$127
0
TEXT
8
LABEL_INFO
10
-1.5761993333
20
0.8793986667
40
0.889
1
0 0 0 0 0 1
41
0.75
7
W0$127
0
TEXT
8
LABEL_ATTRIBUTE
10
-1.5761993333
20
0.8793986667
40
0.889
1
Comment
41
0.75
7
W0$127
0
TEXT
8
ATTRIBUTE_129
10
-1.5761993333
20
0.8793986667
40
0.889
1
 
41
0.75
7
W0$127
0
TEXT
8
LABEL_INFO
10
0.4572
20
0.2286
40
0.56
1
0 324000000 0 0 0 1
50
180
41
0.75
7
W0$0381
0
TEXT
8
LABEL_ATTRIBUTE
10
0.4572
20
0.2286
40
0.56
1
Ref.Des.
50
180
41
0.75
7
W0$0381
0
TEXT
8
PART_NAME_04
10
0.4572
20
0.2286
40
0.56
1
R62
50
180
41
0.75
7
W0$0381
0
TEXT
8
PART_TYPE_BOT
10
0.4572
20
-0.5714
40
0.56
1
R0603
50
180
41
0.75
7
W0$0381
0
TEXT
8
PART_INFO
10
0.4572
20
-1.3714
40
0.56
1
000000
71
2
50
180
41
0.75
7
W0$0381
0
TEXT
8
PART_PTS
10
0.4572
20
-2.1714
40
0.56
1
1 2 
71
2
50
180
41
0.75
7
W0$0381
0
ENDBLK
0
BLOCK
2
PART_BOT_239
8
0
10
0
20
0
3
PART_BOT_239
70
64
0
INSERT
2
SYM_BOT_19
8
0
10
0
20
0
0
INSERT
2
PKG_12
8
0
10
0
20
0
41
-1
0
TEXT
8
LABEL_INFO
10
0
20
0
40
0.56
1
0 0 1 1 0 1
72
1
73
1
11
0
21
0
41
0.75
7
W0$127
0
TEXT
8
LABEL_ATTRIBUTE
10
0
20
0
40
0.56
1
Value
72
1
73
1
11
0
21
0
41
0.75
7
W0$127
0
TEXT
8
ATTRIBUTE_04
10
0
20
0
40
0.56
1
10K
72
1
73
2
11
0
21
0
41
0.75
7
W0$127
0
TEXT
8
LABEL_INFO
10
0.6096
20
0.1524
40
0.56
1
0 324000000 0 0 0 1
50
180
41
0.75
7
W0$0381
0
TEXT
8
LABEL_ATTRIBUTE
10
0.6096
20
0.1524
40
0.56
1
Ref.Des.
50
180
41
0.75
7
W0$0381
0
TEXT
8
PART_NAME_04
10
0.6096
20
0.1524
40
0.56
1
R63
50
180
41
0.75
7
W0$0381
0
TEXT
8
LABEL_INFO
10
-0.963498
20
0.6666986667
40
0.889
1
0 0 0 0 0 1
41
0.75
7
W0$127
0
TEXT
8
LABEL_ATTRIBUTE
10
-0.963498
20
0.6666986667
40
0.889
1
Comment
41
0.75
7
W0$127
0
TEXT
8
ATTRIBUTE_04
10
-0.963498
20
0.6666986667
40
0.889
1
 
41
0.75
7
W0$127
0
TEXT
8
PART_TYPE_BOT
10
-0.963498
20
-0.6033013333
40
0.889
1
R0402
41
0.75
7
W0$127
0
TEXT
8
PART_INFO
10
-0.963498
20
-1.8733013333
40
0.889
1
000000
71
2
41
0.75
7
W0$127
0
TEXT
8
PART_PTS
10
-0.963498
20
-3.1433013333
40
0.889
1
1 2 
71
2
41
0.75
7
W0$127
0
ENDBLK
0
BLOCK
2
PART_BOT_240
8
0
10
0
20
0
3
PART_BOT_240
70
64
0
INSERT
2
SYM_BOT_42
8
0
10
0
20
0
0
INSERT
2
PKG_34
8
0
10
0
20
0
41
-1
0
TEXT
8
LABEL_INFO
10
0
20
0
40
0.56
1
0 0 1 1 0 1
72
1
73
1
11
0
21
0
41
0.75
7
W0$127
0
TEXT
8
LABEL_ATTRIBUTE
10
0
20
0
40
0.56
1
Value
72
1
73
1
11
0
21
0
41
0.75
7
W0$127
0
TEXT
8
ATTRIBUTE_04
10
0
20
0
40
0.56
1
FB120R_2A
72
1
73
2
11
0
21
0
41
0.75
7
W0$127
0
TEXT
8
LABEL_INFO
10
-1.5761993333
20
0.8793986667
40
0.889
1
0 0 0 0 0 1
41
0.75
7
W0$127
0
TEXT
8
LABEL_ATTRIBUTE
10
-1.5761993333
20
0.8793986667
40
0.889
1
Comment
41
0.75
7
W0$127
0
TEXT
8
ATTRIBUTE_129
10
-1.5761993333
20
0.8793986667
40
0.889
1
 
41
0.75
7
W0$127
0
TEXT
8
LABEL_INFO
10
0.381
20
0.2286
40
0.56
1
0 324000000 0 0 0 1
50
180
41
0.75
7
W0$0381
0
TEXT
8
LABEL_ATTRIBUTE
10
0.381
20
0.2286
40
0.56
1
Ref.Des.
50
180
41
0.75
7
W0$0381
0
TEXT
8
PART_NAME_04
10
0.381
20
0.2286
40
0.56
1
R61
50
180
41
0.75
7
W0$0381
0
TEXT
8
PART_TYPE_BOT
10
0.381
20
-0.5714
40
0.56
1
R0603
50
180
41
0.75
7
W0$0381
0
TEXT
8
PART_INFO
10
0.381
20
-1.3714
40
0.56
1
000000
71
2
50
180
41
0.75
7
W0$0381
0
TEXT
8
PART_PTS
10
0.381
20
-2.1714
40
0.56
1
1 2 
71
2
50
180
41
0.75
7
W0$0381
0
ENDBLK
0
BLOCK
2
PART_BOT_241
8
0
10
0
20
0
3
PART_BOT_241
70
64
0
INSERT
2
SYM_BOT_42
8
0
10
0
20
0
0
INSERT
2
PKG_34
8
0
10
0
20
0
41
-1
0
TEXT
8
LABEL_INFO
10
0
20
0
40
0.56
1
0 0 1 1 0 1
72
1
73
1
11
0
21
0
41
0.75
7
W0$127
0
TEXT
8
LABEL_ATTRIBUTE
10
0
20
0
40
0.56
1
Value
72
1
73
1
11
0
21
0
41
0.75
7
W0$127
0
TEXT
8
ATTRIBUTE_04
10
0
20
0
40
0.56
1
FB120_2A
72
1
73
2
11
0
21
0
41
0.75
7
W0$127
0
TEXT
8
LABEL_INFO
10
-1.5761993333
20
0.8793986667
40
0.889
1
0 0 0 0 0 1
41
0.75
7
W0$127
0
TEXT
8
LABEL_ATTRIBUTE
10
-1.5761993333
20
0.8793986667
40
0.889
1
Comment
41
0.75
7
W0$127
0
TEXT
8
ATTRIBUTE_129
10
-1.5761993333
20
0.8793986667
40
0.889
1
 
41
0.75
7
W0$127
0
TEXT
8
LABEL_INFO
10
0.5334
20
0.0762
40
0.56
1
0 324000000 0 0 0 1
50
180
41
0.75
7
W0$0381
0
TEXT
8
LABEL_ATTRIBUTE
10
0.5334
20
0.0762
40
0.56
1
Ref.Des.
50
180
41
0.75
7
W0$0381
0
TEXT
8
PART_NAME_04
10
0.5334
20
0.0762
40
0.56
1
R8
50
180
41
0.75
7
W0$0381
0
TEXT
8
PART_TYPE_BOT
10
0.5334
20
-0.7238
40
0.56
1
R0603
50
180
41
0.75
7
W0$0381
0
TEXT
8
PART_INFO
10
0.5334
20
-1.5238
40
0.56
1
000000
71
2
50
180
41
0.75
7
W0$0381
0
TEXT
8
PART_PTS
10
0.5334
20
-2.3238
40
0.56
1
1 2 
71
2
50
180
41
0.75
7
W0$0381
0
ENDBLK
0
BLOCK
2
PART_BOT_243
8
0
10
0
20
0
3
PART_BOT_243
70
64
0
INSERT
2
SYM_BOT_19
8
0
10
0
20
0
0
INSERT
2
PKG_12
8
0
10
0
20
0
41
-1
0
TEXT
8
LABEL_INFO
10
0
20
0
40
0.56
1
0 0 1 1 0 1
72
1
73
1
11
0
21
0
41
0.75
7
W0$127
0
TEXT
8
LABEL_ATTRIBUTE
10
0
20
0
40
0.56
1
Value
72
1
73
1
11
0
21
0
41
0.75
7
W0$127
0
TEXT
8
ATTRIBUTE_04
10
0
20
0
40
0.56
1
10K
72
1
73
2
11
0
21
0
41
0.75
7
W0$127
0
TEXT
8
LABEL_INFO
10
-0.7366
20
-0.1524
40
0.56
1
0 0 0 0 0 1
41
0.75
7
W0$0381
0
TEXT
8
LABEL_ATTRIBUTE
10
-0.7366
20
-0.1524
40
0.56
1
Ref.Des.
41
0.75
7
W0$0381
0
TEXT
8
PART_NAME_04
10
-0.7366
20
-0.1524
40
0.56
1
R21
41
0.75
7
W0$0381
0
TEXT
8
LABEL_INFO
10
-0.963498
20
0.6666986667
40
0.889
1
0 0 0 0 0 1
41
0.75
7
W0$127
0
TEXT
8
LABEL_ATTRIBUTE
10
-0.963498
20
0.6666986667
40
0.889
1
Comment
41
0.75
7
W0$127
0
TEXT
8
ATTRIBUTE_04
10
-0.963498
20
0.6666986667
40
0.889
1
 
41
0.75
7
W0$127
0
TEXT
8
PART_TYPE_BOT
10
-0.963498
20
-0.6033013333
40
0.889
1
R0402
41
0.75
7
W0$127
0
TEXT
8
PART_INFO
10
-0.963498
20
-1.8733013333
40
0.889
1
000000
71
2
41
0.75
7
W0$127
0
TEXT
8
PART_PTS
10
-0.963498
20
-3.1433013333
40
0.889
1
1 2 
71
2
41
0.75
7
W0$127
0
ENDBLK
0
BLOCK
2
PART_BOT_244
8
0
10
0
20
0
3
PART_BOT_244
70
64
0
INSERT
2
SYM_BOT_19
8
0
10
0
20
0
0
INSERT
2
PKG_12
8
0
10
0
20
0
41
-1
0
TEXT
8
LABEL_INFO
10
0
20
0
40
0.56
1
0 0 1 1 0 1
72
1
73
1
11
0
21
0
41
0.75
7
W0$127
0
TEXT
8
LABEL_ATTRIBUTE
10
0
20
0
40
0.56
1
Value
72
1
73
1
11
0
21
0
41
0.75
7
W0$127
0
TEXT
8
ATTRIBUTE_04
10
0
20
0
40
0.56
1
NC
72
1
73
2
11
0
21
0
41
0.75
7
W0$127
0
TEXT
8
LABEL_INFO
10
-0.307
20
-0.2108
40
0.56
1
0 0 0 0 0 1
41
0.75
7
W0$0381
0
TEXT
8
LABEL_ATTRIBUTE
10
-0.307
20
-0.2108
40
0.56
1
Ref.Des.
41
0.75
7
W0$0381
0
TEXT
8
PART_NAME_04
10
-0.307
20
-0.2108
40
0.56
1
R3
41
0.75
7
W0$0381
0
TEXT
8
LABEL_INFO
10
-0.963498
20
0.6666986667
40
0.889
1
0 0 0 0 0 1
41
0.75
7
W0$127
0
TEXT
8
LABEL_ATTRIBUTE
10
-0.963498
20
0.6666986667
40
0.889
1
Comment
41
0.75
7
W0$127
0
TEXT
8
ATTRIBUTE_04
10
-0.963498
20
0.6666986667
40
0.889
1
 
41
0.75
7
W0$127
0
TEXT
8
PART_TYPE_BOT
10
-0.963498
20
-0.6033013333
40
0.889
1
R0402
41
0.75
7
W0$127
0
TEXT
8
PART_INFO
10
-0.963498
20
-1.8733013333
40
0.889
1
000000
71
2
41
0.75
7
W0$127
0
TEXT
8
PART_PTS
10
-0.963498
20
-3.1433013333
40
0.889
1
1 2 
71
2
41
0.75
7
W0$127
0
ENDBLK
0
BLOCK
2
PART_BOT_245
8
0
10
0
20
0
3
PART_BOT_245
70
64
0
INSERT
2
SYM_BOT_19
8
0
10
0
20
0
0
INSERT
2
PKG_12
8
0
10
0
20
0
41
-1
0
TEXT
8
LABEL_INFO
10
0
20
0
40
0.56
1
0 0 1 1 0 1
72
1
73
1
11
0
21
0
41
0.75
7
W0$127
0
TEXT
8
LABEL_ATTRIBUTE
10
0
20
0
40
0.56
1
Value
72
1
73
1
11
0
21
0
41
0.75
7
W0$127
0
TEXT
8
ATTRIBUTE_04
10
0
20
0
40
0.56
1
NC
72
1
73
2
11
0
21
0
41
0.75
7
W0$127
0
TEXT
8
LABEL_INFO
10
-0.7112
20
-0.1524
40
0.56
1
0 0 0 0 0 1
41
0.75
7
W0$0381
0
TEXT
8
LABEL_ATTRIBUTE
10
-0.7112
20
-0.1524
40
0.56
1
Ref.Des.
41
0.75
7
W0$0381
0
TEXT
8
PART_NAME_04
10
-0.7112
20
-0.1524
40
0.56
1
R4
41
0.75
7
W0$0381
0
TEXT
8
LABEL_INFO
10
-0.963498
20
0.6666986667
40
0.889
1
0 0 0 0 0 1
41
0.75
7
W0$127
0
TEXT
8
LABEL_ATTRIBUTE
10
-0.963498
20
0.6666986667
40
0.889
1
Comment
41
0.75
7
W0$127
0
TEXT
8
ATTRIBUTE_04
10
-0.963498
20
0.6666986667
40
0.889
1
 
41
0.75
7
W0$127
0
TEXT
8
PART_TYPE_BOT
10
-0.963498
20
-0.6033013333
40
0.889
1
R0402
41
0.75
7
W0$127
0
TEXT
8
PART_INFO
10
-0.963498
20
-1.8733013333
40
0.889
1
000000
71
2
41
0.75
7
W0$127
0
TEXT
8
PART_PTS
10
-0.963498
20
-3.1433013333
40
0.889
1
1 2 
71
2
41
0.75
7
W0$127
0
ENDBLK
0
BLOCK
2
PART_BOT_246
8
0
10
0
20
0
3
PART_BOT_246
70
64
0
INSERT
2
SYM_BOT_19
8
0
10
0
20
0
0
INSERT
2
PKG_12
8
0
10
0
20
0
41
-1
0
TEXT
8
LABEL_INFO
10
0
20
0
40
0.56
1
0 0 1 1 0 1
72
1
73
1
11
0
21
0
41
0.75
7
W0$127
0
TEXT
8
LABEL_ATTRIBUTE
10
0
20
0
40
0.56
1
Value
72
1
73
1
11
0
21
0
41
0.75
7
W0$127
0
TEXT
8
ATTRIBUTE_04
10
0
20
0
40
0.56
1
NC
72
1
73
2
11
0
21
0
41
0.75
7
W0$127
0
TEXT
8
LABEL_INFO
10
-0.3426
20
-0.1762
40
0.56
1
0 0 0 0 0 1
41
0.75
7
W0$0381
0
TEXT
8
LABEL_ATTRIBUTE
10
-0.3426
20
-0.1762
40
0.56
1
Ref.Des.
41
0.75
7
W0$0381
0
TEXT
8
PART_NAME_04
10
-0.3426
20
-0.1762
40
0.56
1
R2
41
0.75
7
W0$0381
0
TEXT
8
LABEL_INFO
10
-0.963498
20
0.6666986667
40
0.889
1
0 0 0 0 0 1
41
0.75
7
W0$127
0
TEXT
8
LABEL_ATTRIBUTE
10
-0.963498
20
0.6666986667
40
0.889
1
Comment
41
0.75
7
W0$127
0
TEXT
8
ATTRIBUTE_04
10
-0.963498
20
0.6666986667
40
0.889
1
 
41
0.75
7
W0$127
0
TEXT
8
PART_TYPE_BOT
10
-0.963498
20
-0.6033013333
40
0.889
1
R0402
41
0.75
7
W0$127
0
TEXT
8
PART_INFO
10
-0.963498
20
-1.8733013333
40
0.889
1
000000
71
2
41
0.75
7
W0$127
0
TEXT
8
PART_PTS
10
-0.963498
20
-3.1433013333
40
0.889
1
1 2 
71
2
41
0.75
7
W0$127
0
ENDBLK
0
BLOCK
2
PART_BOT_247
8
0
10
0
20
0
3
PART_BOT_247
70
64
0
INSERT
2
SYM_BOT_19
8
0
10
0
20
0
0
INSERT
2
PKG_12
8
0
10
0
20
0
41
-1
0
TEXT
8
LABEL_INFO
10
0
20
0
40
0.56
1
0 0 1 1 0 1
72
1
73
1
11
0
21
0
41
0.75
7
W0$127
0
TEXT
8
LABEL_ATTRIBUTE
10
0
20
0
40
0.56
1
Value
72
1
73
1
11
0
21
0
41
0.75
7
W0$127
0
TEXT
8
ATTRIBUTE_04
10
0
20
0
40
0.56
1
NC
72
1
73
2
11
0
21
0
41
0.75
7
W0$127
0
TEXT
8
LABEL_INFO
10
0.3603993333
20
0.3942
40
0.56
1
0 324000000 0 0 0 1
50
180
41
0.75
7
W0$0381
0
TEXT
8
LABEL_ATTRIBUTE
10
0.3603993333
20
0.3942
40
0.56
1
Ref.Des.
50
180
41
0.75
7
W0$0381
0
TEXT
8
PART_NAME_04
10
0.3603993333
20
0.3942
40
0.56
1
R1
50
180
41
0.75
7
W0$0381
0
TEXT
8
LABEL_INFO
10
-0.963498
20
0.6666986667
40
0.889
1
0 0 0 0 0 1
41
0.75
7
W0$127
0
TEXT
8
LABEL_ATTRIBUTE
10
-0.963498
20
0.6666986667
40
0.889
1
Comment
41
0.75
7
W0$127
0
TEXT
8
ATTRIBUTE_04
10
-0.963498
20
0.6666986667
40
0.889
1
 
41
0.75
7
W0$127
0
TEXT
8
PART_TYPE_BOT
10
-0.963498
20
-0.6033013333
40
0.889
1
R0402
41
0.75
7
W0$127
0
TEXT
8
PART_INFO
10
-0.963498
20
-1.8733013333
40
0.889
1
000000
71
2
41
0.75
7
W0$127
0
TEXT
8
PART_PTS
10
-0.963498
20
-3.1433013333
40
0.889
1
1 2 
71
2
41
0.75
7
W0$127
0
ENDBLK
0
BLOCK
2
PART_BOT_248
8
0
10
0
20
0
3
PART_BOT_248
70
64
0
INSERT
2
SYM_BOT_42
8
0
10
0
20
0
0
INSERT
2
PKG_34
8
0
10
0
20
0
41
-1
0
TEXT
8
LABEL_INFO
10
0
20
0
40
0.56
1
0 0 1 1 0 1
72
1
73
1
11
0
21
0
41
0.75
7
W0$127
0
TEXT
8
LABEL_ATTRIBUTE
10
0
20
0
40
0.56
1
Value
72
1
73
1
11
0
21
0
41
0.75
7
W0$127
0
TEXT
8
ATTRIBUTE_04
10
0
20
0
40
0.56
1
FB120_2A
72
1
73
2
11
0
21
0
41
0.75
7
W0$127
0
TEXT
8
LABEL_INFO
10
-1.5761993333
20
0.8793986667
40
0.889
1
0 0 0 0 0 1
41
0.75
7
W0$127
0
TEXT
8
LABEL_ATTRIBUTE
10
-1.5761993333
20
0.8793986667
40
0.889
1
Comment
41
0.75
7
W0$127
0
TEXT
8
ATTRIBUTE_129
10
-1.5761993333
20
0.8793986667
40
0.889
1
 
41
0.75
7
W0$127
0
TEXT
8
LABEL_INFO
10
-0.6858
20
-0.1524
40
0.56
1
0 0 0 0 0 1
41
0.75
7
W0$0381
0
TEXT
8
LABEL_ATTRIBUTE
10
-0.6858
20
-0.1524
40
0.56
1
Ref.Des.
41
0.75
7
W0$0381
0
TEXT
8
PART_NAME_04
10
-0.6858
20
-0.1524
40
0.56
1
R37
41
0.75
7
W0$0381
0
TEXT
8
PART_TYPE_BOT
10
-0.6858
20
-0.9524
40
0.56
1
R0603
41
0.75
7
W0$0381
0
TEXT
8
PART_INFO
10
-0.6858
20
-1.7524
40
0.56
1
000000
71
2
41
0.75
7
W0$0381
0
TEXT
8
PART_PTS
10
-0.6858
20
-2.5524
40
0.56
1
1 2 
71
2
41
0.75
7
W0$0381
0
ENDBLK
0
BLOCK
2
PART_BOT_251
8
0
10
0
20
0
3
PART_BOT_251
70
64
0
INSERT
2
SYM_BOT_19
8
0
10
0
20
0
0
INSERT
2
PKG_12
8
0
10
0
20
0
41
-1
0
TEXT
8
LABEL_INFO
10
0
20
0
40
0.56
1
0 0 1 1 0 1
72
1
73
1
11
0
21
0
41
0.75
7
W0$127
0
TEXT
8
LABEL_ATTRIBUTE
10
0
20
0
40
0.56
1
Value
72
1
73
1
11
0
21
0
41
0.75
7
W0$127
0
TEXT
8
ATTRIBUTE_04
10
0
20
0
40
0.56
1
4.7K
72
1
73
2
11
0
21
0
41
0.75
7
W0$127
0
TEXT
8
LABEL_INFO
10
-0.598
20
-0.155
40
0.56
1
0 0 0 0 0 1
41
0.75
7
W0$0381
0
TEXT
8
LABEL_ATTRIBUTE
10
-0.598
20
-0.155
40
0.56
1
Ref.Des.
41
0.75
7
W0$0381
0
TEXT
8
PART_NAME_04
10
-0.598
20
-0.155
40
0.56
1
R33
41
0.75
7
W0$0381
0
TEXT
8
LABEL_INFO
10
-0.963498
20
0.6666986667
40
0.889
1
0 0 0 0 0 1
41
0.75
7
W0$127
0
TEXT
8
LABEL_ATTRIBUTE
10
-0.963498
20
0.6666986667
40
0.889
1
Comment
41
0.75
7
W0$127
0
TEXT
8
ATTRIBUTE_04
10
-0.963498
20
0.6666986667
40
0.889
1
 
41
0.75
7
W0$127
0
TEXT
8
PART_TYPE_BOT
10
-0.963498
20
-0.6033013333
40
0.889
1
R0402
41
0.75
7
W0$127
0
TEXT
8
PART_INFO
10
-0.963498
20
-1.8733013333
40
0.889
1
000000
71
2
41
0.75
7
W0$127
0
TEXT
8
PART_PTS
10
-0.963498
20
-3.1433013333
40
0.889
1
1 2 
71
2
41
0.75
7
W0$127
0
ENDBLK
0
BLOCK
2
PART_BOT_252
8
0
10
0
20
0
3
PART_BOT_252
70
64
0
INSERT
2
SYM_BOT_19
8
0
10
0
20
0
0
INSERT
2
PKG_12
8
0
10
0
20
0
41
-1
0
TEXT
8
LABEL_INFO
10
0
20
0
40
0.56
1
0 0 1 1 0 1
72
1
73
1
11
0
21
0
41
0.75
7
W0$127
0
TEXT
8
LABEL_ATTRIBUTE
10
0
20
0
40
0.56
1
Value
72
1
73
1
11
0
21
0
41
0.75
7
W0$127
0
TEXT
8
ATTRIBUTE_04
10
0
20
0
40
0.56
1
4.7K
72
1
73
2
11
0
21
0
41
0.75
7
W0$127
0
TEXT
8
LABEL_INFO
10
-0.598
20
-0.155
40
0.56
1
0 0 0 0 0 1
41
0.75
7
W0$0381
0
TEXT
8
LABEL_ATTRIBUTE
10
-0.598
20
-0.155
40
0.56
1
Ref.Des.
41
0.75
7
W0$0381
0
TEXT
8
PART_NAME_04
10
-0.598
20
-0.155
40
0.56
1
R34
41
0.75
7
W0$0381
0
TEXT
8
LABEL_INFO
10
-0.963498
20
0.6666986667
40
0.889
1
0 0 0 0 0 1
41
0.75
7
W0$127
0
TEXT
8
LABEL_ATTRIBUTE
10
-0.963498
20
0.6666986667
40
0.889
1
Comment
41
0.75
7
W0$127
0
TEXT
8
ATTRIBUTE_04
10
-0.963498
20
0.6666986667
40
0.889
1
 
41
0.75
7
W0$127
0
TEXT
8
PART_TYPE_BOT
10
-0.963498
20
-0.6033013333
40
0.889
1
R0402
41
0.75
7
W0$127
0
TEXT
8
PART_INFO
10
-0.963498
20
-1.8733013333
40
0.889
1
000000
71
2
41
0.75
7
W0$127
0
TEXT
8
PART_PTS
10
-0.963498
20
-3.1433013333
40
0.889
1
1 2 
71
2
41
0.75
7
W0$127
0
ENDBLK
0
BLOCK
2
PART_BOT_253
8
0
10
0
20
0
3
PART_BOT_253
70
64
0
INSERT
2
SYM_BOT_19
8
0
10
0
20
0
0
INSERT
2
PKG_12
8
0
10
0
20
0
41
-1
0
TEXT
8
LABEL_INFO
10
0
20
0
40
0.56
1
0 0 1 1 0 1
72
1
73
1
11
0
21
0
41
0.75
7
W0$127
0
TEXT
8
LABEL_ATTRIBUTE
10
0
20
0
40
0.56
1
Value
72
1
73
1
11
0
21
0
41
0.75
7
W0$127
0
TEXT
8
ATTRIBUTE_04
10
0
20
0
40
0.56
1
NC
72
1
73
2
11
0
21
0
41
0.75
7
W0$127
0
TEXT
8
LABEL_INFO
10
-0.598
20
-0.155
40
0.56
1
0 0 0 0 0 1
41
0.75
7
W0$0381
0
TEXT
8
LABEL_ATTRIBUTE
10
-0.598
20
-0.155
40
0.56
1
Ref.Des.
41
0.75
7
W0$0381
0
TEXT
8
PART_NAME_04
10
-0.598
20
-0.155
40
0.56
1
R35
41
0.75
7
W0$0381
0
TEXT
8
LABEL_INFO
10
-0.963498
20
0.6666986667
40
0.889
1
0 0 0 0 0 1
41
0.75
7
W0$127
0
TEXT
8
LABEL_ATTRIBUTE
10
-0.963498
20
0.6666986667
40
0.889
1
Comment
41
0.75
7
W0$127
0
TEXT
8
ATTRIBUTE_04
10
-0.963498
20
0.6666986667
40
0.889
1
 
41
0.75
7
W0$127
0
TEXT
8
PART_TYPE_BOT
10
-0.963498
20
-0.6033013333
40
0.889
1
R0402
41
0.75
7
W0$127
0
TEXT
8
PART_INFO
10
-0.963498
20
-1.8733013333
40
0.889
1
000000
71
2
41
0.75
7
W0$127
0
TEXT
8
PART_PTS
10
-0.963498
20
-3.1433013333
40
0.889
1
1 2 
71
2
41
0.75
7
W0$127
0
ENDBLK
0
BLOCK
2
PART_BOT_254
8
0
10
0
20
0
3
PART_BOT_254
70
64
0
INSERT
2
SYM_BOT_19
8
0
10
0
20
0
0
INSERT
2
PKG_12
8
0
10
0
20
0
41
-1
0
TEXT
8
LABEL_INFO
10
0
20
0
40
0.56
1
0 0 1 1 0 1
72
1
73
1
11
0
21
0
41
0.75
7
W0$127
0
TEXT
8
LABEL_ATTRIBUTE
10
0
20
0
40
0.56
1
Value
72
1
73
1
11
0
21
0
41
0.75
7
W0$127
0
TEXT
8
ATTRIBUTE_04
10
0
20
0
40
0.56
1
NC
72
1
73
2
11
0
21
0
41
0.75
7
W0$127
0
TEXT
8
LABEL_INFO
10
-0.598
20
-0.155
40
0.56
1
0 0 0 0 0 1
41
0.75
7
W0$0381
0
TEXT
8
LABEL_ATTRIBUTE
10
-0.598
20
-0.155
40
0.56
1
Ref.Des.
41
0.75
7
W0$0381
0
TEXT
8
PART_NAME_04
10
-0.598
20
-0.155
40
0.56
1
R36
41
0.75
7
W0$0381
0
TEXT
8
LABEL_INFO
10
-0.963498
20
0.6666986667
40
0.889
1
0 0 0 0 0 1
41
0.75
7
W0$127
0
TEXT
8
LABEL_ATTRIBUTE
10
-0.963498
20
0.6666986667
40
0.889
1
Comment
41
0.75
7
W0$127
0
TEXT
8
ATTRIBUTE_04
10
-0.963498
20
0.6666986667
40
0.889
1
 
41
0.75
7
W0$127
0
TEXT
8
PART_TYPE_BOT
10
-0.963498
20
-0.6033013333
40
0.889
1
R0402
41
0.75
7
W0$127
0
TEXT
8
PART_INFO
10
-0.963498
20
-1.8733013333
40
0.889
1
000000
71
2
41
0.75
7
W0$127
0
TEXT
8
PART_PTS
10
-0.963498
20
-3.1433013333
40
0.889
1
1 2 
71
2
41
0.75
7
W0$127
0
ENDBLK
0
BLOCK
2
PART_BOT_255
8
0
10
0
20
0
3
PART_BOT_255
70
64
0
INSERT
2
SYM_BOT_19
8
0
10
0
20
0
0
INSERT
2
PKG_12
8
0
10
0
20
0
41
-1
0
TEXT
8
LABEL_INFO
10
0
20
0
40
0.56
1
0 0 1 1 0 1
72
1
73
1
11
0
21
0
41
0.75
7
W0$127
0
TEXT
8
LABEL_ATTRIBUTE
10
0
20
0
40
0.56
1
Value
72
1
73
1
11
0
21
0
41
0.75
7
W0$127
0
TEXT
8
ATTRIBUTE_04
10
0
20
0
40
0.56
1
0R
72
1
73
2
11
0
21
0
41
0.75
7
W0$127
0
TEXT
8
LABEL_INFO
10
-0.598
20
-0.155
40
0.56
1
0 0 0 0 0 1
41
0.75
7
W0$0381
0
TEXT
8
LABEL_ATTRIBUTE
10
-0.598
20
-0.155
40
0.56
1
Ref.Des.
41
0.75
7
W0$0381
0
TEXT
8
PART_NAME_04
10
-0.598
20
-0.155
40
0.56
1
R71
41
0.75
7
W0$0381
0
TEXT
8
LABEL_INFO
10
-0.963498
20
0.6666986667
40
0.889
1
0 0 0 0 0 1
41
0.75
7
W0$127
0
TEXT
8
LABEL_ATTRIBUTE
10
-0.963498
20
0.6666986667
40
0.889
1
Comment
41
0.75
7
W0$127
0
TEXT
8
ATTRIBUTE_04
10
-0.963498
20
0.6666986667
40
0.889
1
 
41
0.75
7
W0$127
0
TEXT
8
PART_TYPE_BOT
10
-0.963498
20
-0.6033013333
40
0.889
1
R0402
41
0.75
7
W0$127
0
TEXT
8
PART_INFO
10
-0.963498
20
-1.8733013333
40
0.889
1
000000
71
2
41
0.75
7
W0$127
0
TEXT
8
PART_PTS
10
-0.963498
20
-3.1433013333
40
0.889
1
1 2 
71
2
41
0.75
7
W0$127
0
ENDBLK
0
BLOCK
2
PART_BOT_256
8
0
10
0
20
0
3
PART_BOT_256
70
64
0
INSERT
2
SYM_BOT_19
8
0
10
0
20
0
0
INSERT
2
PKG_12
8
0
10
0
20
0
41
-1
0
TEXT
8
LABEL_INFO
10
0
20
0
40
0.56
1
0 0 1 1 0 1
72
1
73
1
11
0
21
0
41
0.75
7
W0$127
0
TEXT
8
LABEL_ATTRIBUTE
10
0
20
0
40
0.56
1
Value
72
1
73
1
11
0
21
0
41
0.75
7
W0$127
0
TEXT
8
ATTRIBUTE_04
10
0
20
0
40
0.56
1
0R
72
1
73
2
11
0
21
0
41
0.75
7
W0$127
0
TEXT
8
LABEL_INFO
10
-0.598
20
-0.155
40
0.56
1
0 0 0 0 0 1
41
0.75
7
W0$0381
0
TEXT
8
LABEL_ATTRIBUTE
10
-0.598
20
-0.155
40
0.56
1
Ref.Des.
41
0.75
7
W0$0381
0
TEXT
8
PART_NAME_04
10
-0.598
20
-0.155
40
0.56
1
R70
41
0.75
7
W0$0381
0
TEXT
8
LABEL_INFO
10
-0.963498
20
0.6666986667
40
0.889
1
0 0 0 0 0 1
41
0.75
7
W0$127
0
TEXT
8
LABEL_ATTRIBUTE
10
-0.963498
20
0.6666986667
40
0.889
1
Comment
41
0.75
7
W0$127
0
TEXT
8
ATTRIBUTE_04
10
-0.963498
20
0.6666986667
40
0.889
1
 
41
0.75
7
W0$127
0
TEXT
8
PART_TYPE_BOT
10
-0.963498
20
-0.6033013333
40
0.889
1
R0402
41
0.75
7
W0$127
0
TEXT
8
PART_INFO
10
-0.963498
20
-1.8733013333
40
0.889
1
000000
71
2
41
0.75
7
W0$127
0
TEXT
8
PART_PTS
10
-0.963498
20
-3.1433013333
40
0.889
1
1 2 
71
2
41
0.75
7
W0$127
0
ENDBLK
0
BLOCK
2
PART_BOT_260
8
0
10
0
20
0
3
PART_BOT_260
70
64
0
INSERT
2
SYM_BOT_19
8
0
10
0
20
0
0
INSERT
2
PKG_12
8
0
10
0
20
0
41
-1
0
TEXT
8
LABEL_INFO
10
0
20
0
40
0.56
1
0 0 1 1 0 1
72
1
73
1
11
0
21
0
41
0.75
7
W0$127
0
TEXT
8
LABEL_ATTRIBUTE
10
0
20
0
40
0.56
1
Value
72
1
73
1
11
0
21
0
41
0.75
7
W0$127
0
TEXT
8
ATTRIBUTE_04
10
0
20
0
40
0.56
1
1K
72
1
73
2
11
0
21
0
41
0.75
7
W0$127
0
TEXT
8
LABEL_INFO
10
-0.598
20
-0.155
40
0.56
1
0 0 0 0 0 1
41
0.75
7
W0$0381
0
TEXT
8
LABEL_ATTRIBUTE
10
-0.598
20
-0.155
40
0.56
1
Ref.Des.
41
0.75
7
W0$0381
0
TEXT
8
PART_NAME_04
10
-0.598
20
-0.155
40
0.56
1
R10
41
0.75
7
W0$0381
0
TEXT
8
LABEL_INFO
10
-0.963498
20
0.6666986667
40
0.889
1
0 0 0 0 0 1
41
0.75
7
W0$127
0
TEXT
8
LABEL_ATTRIBUTE
10
-0.963498
20
0.6666986667
40
0.889
1
Comment
41
0.75
7
W0$127
0
TEXT
8
ATTRIBUTE_04
10
-0.963498
20
0.6666986667
40
0.889
1
 
41
0.75
7
W0$127
0
TEXT
8
PART_TYPE_BOT
10
-0.963498
20
-0.6033013333
40
0.889
1
R0402
41
0.75
7
W0$127
0
TEXT
8
PART_INFO
10
-0.963498
20
-1.8733013333
40
0.889
1
000000
71
2
41
0.75
7
W0$127
0
TEXT
8
PART_PTS
10
-0.963498
20
-3.1433013333
40
0.889
1
1 2 
71
2
41
0.75
7
W0$127
0
ENDBLK
0
BLOCK
2
PART_BOT_261
8
0
10
0
20
0
3
PART_BOT_261
70
64
0
INSERT
2
SYM_BOT_19
8
0
10
0
20
0
0
INSERT
2
PKG_12
8
0
10
0
20
0
41
-1
0
TEXT
8
LABEL_INFO
10
0
20
0
40
0.56
1
0 0 1 1 0 1
72
1
73
1
11
0
21
0
41
0.75
7
W0$127
0
TEXT
8
LABEL_ATTRIBUTE
10
0
20
0
40
0.56
1
Value
72
1
73
1
11
0
21
0
41
0.75
7
W0$127
0
TEXT
8
ATTRIBUTE_04
10
0
20
0
40
0.56
1
100K
72
1
73
2
11
0
21
0
41
0.75
7
W0$127
0
TEXT
8
LABEL_INFO
10
-0.598
20
-0.155
40
0.56
1
0 0 0 0 0 1
41
0.75
7
W0$0381
0
TEXT
8
LABEL_ATTRIBUTE
10
-0.598
20
-0.155
40
0.56
1
Ref.Des.
41
0.75
7
W0$0381
0
TEXT
8
PART_NAME_04
10
-0.598
20
-0.155
40
0.56
1
R9
41
0.75
7
W0$0381
0
TEXT
8
LABEL_INFO
10
-0.963498
20
0.6666986667
40
0.889
1
0 0 0 0 0 1
41
0.75
7
W0$127
0
TEXT
8
LABEL_ATTRIBUTE
10
-0.963498
20
0.6666986667
40
0.889
1
Comment
41
0.75
7
W0$127
0
TEXT
8
ATTRIBUTE_04
10
-0.963498
20
0.6666986667
40
0.889
1
 
41
0.75
7
W0$127
0
TEXT
8
PART_TYPE_BOT
10
-0.963498
20
-0.6033013333
40
0.889
1
R0402
41
0.75
7
W0$127
0
TEXT
8
PART_INFO
10
-0.963498
20
-1.8733013333
40
0.889
1
000000
71
2
41
0.75
7
W0$127
0
TEXT
8
PART_PTS
10
-0.963498
20
-3.1433013333
40
0.889
1
1 2 
71
2
41
0.75
7
W0$127
0
ENDBLK
0
BLOCK
2
PART_BOT_262
8
0
10
0
20
0
3
PART_BOT_262
70
64
0
INSERT
2
SYM_BOT_19
8
0
10
0
20
0
0
INSERT
2
PKG_12
8
0
10
0
20
0
41
-1
0
TEXT
8
LABEL_INFO
10
0
20
0
40
0.56
1
0 0 1 1 0 1
72
1
73
1
11
0
21
0
41
0.75
7
W0$127
0
TEXT
8
LABEL_ATTRIBUTE
10
0
20
0
40
0.56
1
Value
72
1
73
1
11
0
21
0
41
0.75
7
W0$127
0
TEXT
8
ATTRIBUTE_04
10
0
20
0
40
0.56
1
10K
72
1
73
2
11
0
21
0
41
0.75
7
W0$127
0
TEXT
8
LABEL_INFO
10
-0.598
20
-0.155
40
0.56
1
0 0 0 0 0 1
41
0.75
7
W0$0381
0
TEXT
8
LABEL_ATTRIBUTE
10
-0.598
20
-0.155
40
0.56
1
Ref.Des.
41
0.75
7
W0$0381
0
TEXT
8
PART_NAME_04
10
-0.598
20
-0.155
40
0.56
1
R11
41
0.75
7
W0$0381
0
TEXT
8
LABEL_INFO
10
-0.963498
20
0.6666986667
40
0.889
1
0 0 0 0 0 1
41
0.75
7
W0$127
0
TEXT
8
LABEL_ATTRIBUTE
10
-0.963498
20
0.6666986667
40
0.889
1
Comment
41
0.75
7
W0$127
0
TEXT
8
ATTRIBUTE_04
10
-0.963498
20
0.6666986667
40
0.889
1
 
41
0.75
7
W0$127
0
TEXT
8
PART_TYPE_BOT
10
-0.963498
20
-0.6033013333
40
0.889
1
R0402
41
0.75
7
W0$127
0
TEXT
8
PART_INFO
10
-0.963498
20
-1.8733013333
40
0.889
1
000000
71
2
41
0.75
7
W0$127
0
TEXT
8
PART_PTS
10
-0.963498
20
-3.1433013333
40
0.889
1
1 2 
71
2
41
0.75
7
W0$127
0
ENDBLK
0
BLOCK
2
PART_BOT_263
8
0
10
0
20
0
3
PART_BOT_263
70
64
0
INSERT
2
SYM_BOT_19
8
0
10
0
20
0
0
INSERT
2
PKG_12
8
0
10
0
20
0
41
-1
0
TEXT
8
LABEL_INFO
10
0
20
0
40
0.56
1
0 0 1 1 0 1
72
1
73
1
11
0
21
0
41
0.75
7
W0$127
0
TEXT
8
LABEL_ATTRIBUTE
10
0
20
0
40
0.56
1
Value
72
1
73
1
11
0
21
0
41
0.75
7
W0$127
0
TEXT
8
ATTRIBUTE_04
10
0
20
0
40
0.56
1
10K
72
1
73
2
11
0
21
0
41
0.75
7
W0$127
0
TEXT
8
LABEL_INFO
10
-0.598
20
-0.155
40
0.56
1
0 0 0 0 0 1
41
0.75
7
W0$0381
0
TEXT
8
LABEL_ATTRIBUTE
10
-0.598
20
-0.155
40
0.56
1
Ref.Des.
41
0.75
7
W0$0381
0
TEXT
8
PART_NAME_04
10
-0.598
20
-0.155
40
0.56
1
R12
41
0.75
7
W0$0381
0
TEXT
8
LABEL_INFO
10
-0.963498
20
0.6666986667
40
0.889
1
0 0 0 0 0 1
41
0.75
7
W0$127
0
TEXT
8
LABEL_ATTRIBUTE
10
-0.963498
20
0.6666986667
40
0.889
1
Comment
41
0.75
7
W0$127
0
TEXT
8
ATTRIBUTE_04
10
-0.963498
20
0.6666986667
40
0.889
1
 
41
0.75
7
W0$127
0
TEXT
8
PART_TYPE_BOT
10
-0.963498
20
-0.6033013333
40
0.889
1
R0402
41
0.75
7
W0$127
0
TEXT
8
PART_INFO
10
-0.963498
20
-1.8733013333
40
0.889
1
000000
71
2
41
0.75
7
W0$127
0
TEXT
8
PART_PTS
10
-0.963498
20
-3.1433013333
40
0.889
1
1 2 
71
2
41
0.75
7
W0$127
0
ENDBLK
0
BLOCK
2
PART_BOT_264
8
0
10
0
20
0
3
PART_BOT_264
70
64
0
INSERT
2
SYM_BOT_19
8
0
10
0
20
0
0
INSERT
2
PKG_12
8
0
10
0
20
0
41
-1
0
TEXT
8
LABEL_INFO
10
0
20
0
40
0.56
1
0 0 1 1 0 1
72
1
73
1
11
0
21
0
41
0.75
7
W0$127
0
TEXT
8
LABEL_ATTRIBUTE
10
0
20
0
40
0.56
1
Value
72
1
73
1
11
0
21
0
41
0.75
7
W0$127
0
TEXT
8
ATTRIBUTE_04
10
0
20
0
40
0.56
1
10K
72
1
73
2
11
0
21
0
41
0.75
7
W0$127
0
TEXT
8
LABEL_INFO
10
0.6604
20
0.1524
40
0.56
1
0 324000000 0 0 0 1
50
180
41
0.75
7
W0$0381
0
TEXT
8
LABEL_ATTRIBUTE
10
0.6604
20
0.1524
40
0.56
1
Ref.Des.
50
180
41
0.75
7
W0$0381
0
TEXT
8
PART_NAME_04
10
0.6604
20
0.1524
40
0.56
1
R13
50
180
41
0.75
7
W0$0381
0
TEXT
8
LABEL_INFO
10
-0.963498
20
0.6666986667
40
0.889
1
0 0 0 0 0 1
41
0.75
7
W0$127
0
TEXT
8
LABEL_ATTRIBUTE
10
-0.963498
20
0.6666986667
40
0.889
1
Comment
41
0.75
7
W0$127
0
TEXT
8
ATTRIBUTE_04
10
-0.963498
20
0.6666986667
40
0.889
1
 
41
0.75
7
W0$127
0
TEXT
8
PART_TYPE_BOT
10
-0.963498
20
-0.6033013333
40
0.889
1
R0402
41
0.75
7
W0$127
0
TEXT
8
PART_INFO
10
-0.963498
20
-1.8733013333
40
0.889
1
000000
71
2
41
0.75
7
W0$127
0
TEXT
8
PART_PTS
10
-0.963498
20
-3.1433013333
40
0.889
1
1 2 
71
2
41
0.75
7
W0$127
0
ENDBLK
0
BLOCK
2
PART_BOT_265
8
0
10
0
20
0
3
PART_BOT_265
70
64
0
INSERT
2
SYM_BOT_19
8
0
10
0
20
0
0
INSERT
2
PKG_12
8
0
10
0
20
0
41
-1
0
TEXT
8
LABEL_INFO
10
0
20
0
40
0.56
1
0 0 1 1 0 1
72
1
73
1
11
0
21
0
41
0.75
7
W0$127
0
TEXT
8
LABEL_ATTRIBUTE
10
0
20
0
40
0.56
1
Value
72
1
73
1
11
0
21
0
41
0.75
7
W0$127
0
TEXT
8
ATTRIBUTE_04
10
0
20
0
40
0.56
1
10K
72
1
73
2
11
0
21
0
41
0.75
7
W0$127
0
TEXT
8
LABEL_INFO
10
-0.598
20
-0.155
40
0.56
1
0 0 0 0 0 1
41
0.75
7
W0$0381
0
TEXT
8
LABEL_ATTRIBUTE
10
-0.598
20
-0.155
40
0.56
1
Ref.Des.
41
0.75
7
W0$0381
0
TEXT
8
PART_NAME_04
10
-0.598
20
-0.155
40
0.56
1
R14
41
0.75
7
W0$0381
0
TEXT
8
LABEL_INFO
10
-0.963498
20
0.6666986667
40
0.889
1
0 0 0 0 0 1
41
0.75
7
W0$127
0
TEXT
8
LABEL_ATTRIBUTE
10
-0.963498
20
0.6666986667
40
0.889
1
Comment
41
0.75
7
W0$127
0
TEXT
8
ATTRIBUTE_04
10
-0.963498
20
0.6666986667
40
0.889
1
 
41
0.75
7
W0$127
0
TEXT
8
PART_TYPE_BOT
10
-0.963498
20
-0.6033013333
40
0.889
1
R0402
41
0.75
7
W0$127
0
TEXT
8
PART_INFO
10
-0.963498
20
-1.8733013333
40
0.889
1
000000
71
2
41
0.75
7
W0$127
0
TEXT
8
PART_PTS
10
-0.963498
20
-3.1433013333
40
0.889
1
1 2 
71
2
41
0.75
7
W0$127
0
ENDBLK
0
BLOCK
2
PART_BOT_266
8
0
10
0
20
0
3
PART_BOT_266
70
64
0
INSERT
2
SYM_BOT_19
8
0
10
0
20
0
0
INSERT
2
PKG_12
8
0
10
0
20
0
41
-1
0
TEXT
8
LABEL_INFO
10
0
20
0
40
0.56
1
0 0 1 1 0 1
72
1
73
1
11
0
21
0
41
0.75
7
W0$127
0
TEXT
8
LABEL_ATTRIBUTE
10
0
20
0
40
0.56
1
Value
72
1
73
1
11
0
21
0
41
0.75
7
W0$127
0
TEXT
8
ATTRIBUTE_04
10
0
20
0
40
0.56
1
10K
72
1
73
2
11
0
21
0
41
0.75
7
W0$127
0
TEXT
8
LABEL_INFO
10
-0.598
20
-0.155
40
0.56
1
0 0 0 0 0 1
41
0.75
7
W0$0381
0
TEXT
8
LABEL_ATTRIBUTE
10
-0.598
20
-0.155
40
0.56
1
Ref.Des.
41
0.75
7
W0$0381
0
TEXT
8
PART_NAME_04
10
-0.598
20
-0.155
40
0.56
1
R15
41
0.75
7
W0$0381
0
TEXT
8
LABEL_INFO
10
-0.963498
20
0.6666986667
40
0.889
1
0 0 0 0 0 1
41
0.75
7
W0$127
0
TEXT
8
LABEL_ATTRIBUTE
10
-0.963498
20
0.6666986667
40
0.889
1
Comment
41
0.75
7
W0$127
0
TEXT
8
ATTRIBUTE_04
10
-0.963498
20
0.6666986667
40
0.889
1
 
41
0.75
7
W0$127
0
TEXT
8
PART_TYPE_BOT
10
-0.963498
20
-0.6033013333
40
0.889
1
R0402
41
0.75
7
W0$127
0
TEXT
8
PART_INFO
10
-0.963498
20
-1.8733013333
40
0.889
1
000000
71
2
41
0.75
7
W0$127
0
TEXT
8
PART_PTS
10
-0.963498
20
-3.1433013333
40
0.889
1
1 2 
71
2
41
0.75
7
W0$127
0
ENDBLK
0
BLOCK
2
PART_BOT_267
8
0
10
0
20
0
3
PART_BOT_267
70
64
0
INSERT
2
SYM_BOT_19
8
0
10
0
20
0
0
INSERT
2
PKG_12
8
0
10
0
20
0
41
-1
0
TEXT
8
LABEL_INFO
10
0
20
0
40
0.56
1
0 0 1 1 0 1
72
1
73
1
11
0
21
0
41
0.75
7
W0$127
0
TEXT
8
LABEL_ATTRIBUTE
10
0
20
0
40
0.56
1
Value
72
1
73
1
11
0
21
0
41
0.75
7
W0$127
0
TEXT
8
ATTRIBUTE_04
10
0
20
0
40
0.56
1
NC
72
1
73
2
11
0
21
0
41
0.75
7
W0$127
0
TEXT
8
LABEL_INFO
10
-0.598
20
-0.155
40
0.56
1
0 0 0 0 0 1
41
0.75
7
W0$0381
0
TEXT
8
LABEL_ATTRIBUTE
10
-0.598
20
-0.155
40
0.56
1
Ref.Des.
41
0.75
7
W0$0381
0
TEXT
8
PART_NAME_04
10
-0.598
20
-0.155
40
0.56
1
R16
41
0.75
7
W0$0381
0
TEXT
8
LABEL_INFO
10
-0.963498
20
0.6666986667
40
0.889
1
0 0 0 0 0 1
41
0.75
7
W0$127
0
TEXT
8
LABEL_ATTRIBUTE
10
-0.963498
20
0.6666986667
40
0.889
1
Comment
41
0.75
7
W0$127
0
TEXT
8
ATTRIBUTE_04
10
-0.963498
20
0.6666986667
40
0.889
1
 
41
0.75
7
W0$127
0
TEXT
8
PART_TYPE_BOT
10
-0.963498
20
-0.6033013333
40
0.889
1
R0402
41
0.75
7
W0$127
0
TEXT
8
PART_INFO
10
-0.963498
20
-1.8733013333
40
0.889
1
000000
71
2
41
0.75
7
W0$127
0
TEXT
8
PART_PTS
10
-0.963498
20
-3.1433013333
40
0.889
1
1 2 
71
2
41
0.75
7
W0$127
0
ENDBLK
0
BLOCK
2
PART_BOT_268
8
0
10
0
20
0
3
PART_BOT_268
70
64
0
INSERT
2
SYM_BOT_19
8
0
10
0
20
0
0
INSERT
2
PKG_12
8
0
10
0
20
0
41
-1
0
TEXT
8
LABEL_INFO
10
0
20
0
40
0.56
1
0 0 1 1 0 1
72
1
73
1
11
0
21
0
41
0.75
7
W0$127
0
TEXT
8
LABEL_ATTRIBUTE
10
0
20
0
40
0.56
1
Value
72
1
73
1
11
0
21
0
41
0.75
7
W0$127
0
TEXT
8
ATTRIBUTE_04
10
0
20
0
40
0.56
1
1K
72
1
73
2
11
0
21
0
41
0.75
7
W0$127
0
TEXT
8
LABEL_INFO
10
-0.598
20
-0.155
40
0.56
1
0 0 0 0 0 1
41
0.75
7
W0$0381
0
TEXT
8
LABEL_ATTRIBUTE
10
-0.598
20
-0.155
40
0.56
1
Ref.Des.
41
0.75
7
W0$0381
0
TEXT
8
PART_NAME_04
10
-0.598
20
-0.155
40
0.56
1
R17
41
0.75
7
W0$0381
0
TEXT
8
LABEL_INFO
10
-0.963498
20
0.6666986667
40
0.889
1
0 0 0 0 0 1
41
0.75
7
W0$127
0
TEXT
8
LABEL_ATTRIBUTE
10
-0.963498
20
0.6666986667
40
0.889
1
Comment
41
0.75
7
W0$127
0
TEXT
8
ATTRIBUTE_04
10
-0.963498
20
0.6666986667
40
0.889
1
 
41
0.75
7
W0$127
0
TEXT
8
PART_TYPE_BOT
10
-0.963498
20
-0.6033013333
40
0.889
1
R0402
41
0.75
7
W0$127
0
TEXT
8
PART_INFO
10
-0.963498
20
-1.8733013333
40
0.889
1
000000
71
2
41
0.75
7
W0$127
0
TEXT
8
PART_PTS
10
-0.963498
20
-3.1433013333
40
0.889
1
1 2 
71
2
41
0.75
7
W0$127
0
ENDBLK
0
BLOCK
2
PART_BOT_269
8
0
10
0
20
0
3
PART_BOT_269
70
64
0
INSERT
2
SYM_BOT_19
8
0
10
0
20
0
0
INSERT
2
PKG_12
8
0
10
0
20
0
41
-1
0
TEXT
8
LABEL_INFO
10
0
20
0
40
0.56
1
0 0 1 1 0 1
72
1
73
1
11
0
21
0
41
0.75
7
W0$127
0
TEXT
8
LABEL_ATTRIBUTE
10
0
20
0
40
0.56
1
Value
72
1
73
1
11
0
21
0
41
0.75
7
W0$127
0
TEXT
8
ATTRIBUTE_04
10
0
20
0
40
0.56
1
4.7K
72
1
73
2
11
0
21
0
41
0.75
7
W0$127
0
TEXT
8
LABEL_INFO
10
-0.598
20
-0.155
40
0.56
1
0 0 0 0 0 1
41
0.75
7
W0$0381
0
TEXT
8
LABEL_ATTRIBUTE
10
-0.598
20
-0.155
40
0.56
1
Ref.Des.
41
0.75
7
W0$0381
0
TEXT
8
PART_NAME_04
10
-0.598
20
-0.155
40
0.56
1
R18
41
0.75
7
W0$0381
0
TEXT
8
LABEL_INFO
10
-0.963498
20
0.6666986667
40
0.889
1
0 0 0 0 0 1
41
0.75
7
W0$127
0
TEXT
8
LABEL_ATTRIBUTE
10
-0.963498
20
0.6666986667
40
0.889
1
Comment
41
0.75
7
W0$127
0
TEXT
8
ATTRIBUTE_04
10
-0.963498
20
0.6666986667
40
0.889
1
 
41
0.75
7
W0$127
0
TEXT
8
PART_TYPE_BOT
10
-0.963498
20
-0.6033013333
40
0.889
1
R0402
41
0.75
7
W0$127
0
TEXT
8
PART_INFO
10
-0.963498
20
-1.8733013333
40
0.889
1
000000
71
2
41
0.75
7
W0$127
0
TEXT
8
PART_PTS
10
-0.963498
20
-3.1433013333
40
0.889
1
1 2 
71
2
41
0.75
7
W0$127
0
ENDBLK
0
BLOCK
2
PART_BOT_270
8
0
10
0
20
0
3
PART_BOT_270
70
64
0
INSERT
2
SYM_BOT_19
8
0
10
0
20
0
0
INSERT
2
PKG_12
8
0
10
0
20
0
41
-1
0
TEXT
8
LABEL_INFO
10
0
20
0
40
0.56
1
0 0 1 1 0 1
72
1
73
1
11
0
21
0
41
0.75
7
W0$127
0
TEXT
8
LABEL_ATTRIBUTE
10
0
20
0
40
0.56
1
Value
72
1
73
1
11
0
21
0
41
0.75
7
W0$127
0
TEXT
8
ATTRIBUTE_04
10
0
20
0
40
0.56
1
10K
72
1
73
2
11
0
21
0
41
0.75
7
W0$127
0
TEXT
8
LABEL_INFO
10
-0.598
20
-0.155
40
0.56
1
0 0 0 0 0 1
41
0.75
7
W0$0381
0
TEXT
8
LABEL_ATTRIBUTE
10
-0.598
20
-0.155
40
0.56
1
Ref.Des.
41
0.75
7
W0$0381
0
TEXT
8
PART_NAME_04
10
-0.598
20
-0.155
40
0.56
1
R19
41
0.75
7
W0$0381
0
TEXT
8
LABEL_INFO
10
-0.963498
20
0.6666986667
40
0.889
1
0 0 0 0 0 1
41
0.75
7
W0$127
0
TEXT
8
LABEL_ATTRIBUTE
10
-0.963498
20
0.6666986667
40
0.889
1
Comment
41
0.75
7
W0$127
0
TEXT
8
ATTRIBUTE_04
10
-0.963498
20
0.6666986667
40
0.889
1
 
41
0.75
7
W0$127
0
TEXT
8
PART_TYPE_BOT
10
-0.963498
20
-0.6033013333
40
0.889
1
R0402
41
0.75
7
W0$127
0
TEXT
8
PART_INFO
10
-0.963498
20
-1.8733013333
40
0.889
1
000000
71
2
41
0.75
7
W0$127
0
TEXT
8
PART_PTS
10
-0.963498
20
-3.1433013333
40
0.889
1
1 2 
71
2
41
0.75
7
W0$127
0
ENDBLK
0
BLOCK
2
PART_BOT_271
8
0
10
0
20
0
3
PART_BOT_271
70
64
0
INSERT
2
SYM_BOT_19
8
0
10
0
20
0
0
INSERT
2
PKG_12
8
0
10
0
20
0
41
-1
0
TEXT
8
LABEL_INFO
10
0
20
0
40
0.56
1
0 0 1 1 0 1
72
1
73
1
11
0
21
0
41
0.75
7
W0$127
0
TEXT
8
LABEL_ATTRIBUTE
10
0
20
0
40
0.56
1
Value
72
1
73
1
11
0
21
0
41
0.75
7
W0$127
0
TEXT
8
ATTRIBUTE_04
10
0
20
0
40
0.56
1
10K
72
1
73
2
11
0
21
0
41
0.75
7
W0$127
0
TEXT
8
LABEL_INFO
10
-0.598
20
-0.155
40
0.56
1
0 0 0 0 0 1
41
0.75
7
W0$0381
0
TEXT
8
LABEL_ATTRIBUTE
10
-0.598
20
-0.155
40
0.56
1
Ref.Des.
41
0.75
7
W0$0381
0
TEXT
8
PART_NAME_04
10
-0.598
20
-0.155
40
0.56
1
R20
41
0.75
7
W0$0381
0
TEXT
8
LABEL_INFO
10
-0.963498
20
0.6666986667
40
0.889
1
0 0 0 0 0 1
41
0.75
7
W0$127
0
TEXT
8
LABEL_ATTRIBUTE
10
-0.963498
20
0.6666986667
40
0.889
1
Comment
41
0.75
7
W0$127
0
TEXT
8
ATTRIBUTE_04
10
-0.963498
20
0.6666986667
40
0.889
1
 
41
0.75
7
W0$127
0
TEXT
8
PART_TYPE_BOT
10
-0.963498
20
-0.6033013333
40
0.889
1
R0402
41
0.75
7
W0$127
0
TEXT
8
PART_INFO
10
-0.963498
20
-1.8733013333
40
0.889
1
000000
71
2
41
0.75
7
W0$127
0
TEXT
8
PART_PTS
10
-0.963498
20
-3.1433013333
40
0.889
1
1 2 
71
2
41
0.75
7
W0$127
0
ENDBLK
0
BLOCK
2
PART_BOT_283
8
0
10
0
20
0
3
PART_BOT_283
70
64
0
INSERT
2
SYM_BOT_19
8
0
10
0
20
0
0
INSERT
2
PKG_12
8
0
10
0
20
0
41
-1
0
TEXT
8
LABEL_INFO
10
0
20
0
40
0.56
1
0 0 1 1 0 1
72
1
73
1
11
0
21
0
41
0.75
7
W0$127
0
TEXT
8
LABEL_ATTRIBUTE
10
0
20
0
40
0.56
1
Value
72
1
73
1
11
0
21
0
41
0.75
7
W0$127
0
TEXT
8
ATTRIBUTE_04
10
0
20
0
40
0.56
1
100R
72
1
73
2
11
0
21
0
41
0.75
7
W0$127
0
TEXT
8
LABEL_INFO
10
-0.678
20
-0.3272
40
0.56
1
0 0 0 0 0 1
41
0.75
7
W0$0381
0
TEXT
8
LABEL_ATTRIBUTE
10
-0.678
20
-0.3272
40
0.56
1
Ref.Des.
41
0.75
7
W0$0381
0
TEXT
8
PART_NAME_04
10
-0.678
20
-0.3272
40
0.56
1
R54
41
0.75
7
W0$0381
0
TEXT
8
LABEL_INFO
10
-0.963498
20
0.6666986667
40
0.889
1
0 0 0 0 0 1
41
0.75
7
W0$127
0
TEXT
8
LABEL_ATTRIBUTE
10
-0.963498
20
0.6666986667
40
0.889
1
Comment
41
0.75
7
W0$127
0
TEXT
8
ATTRIBUTE_04
10
-0.963498
20
0.6666986667
40
0.889
1
 
41
0.75
7
W0$127
0
TEXT
8
PART_TYPE_BOT
10
-0.963498
20
-0.6033013333
40
0.889
1
R0402
41
0.75
7
W0$127
0
TEXT
8
PART_INFO
10
-0.963498
20
-1.8733013333
40
0.889
1
000000
71
2
41
0.75
7
W0$127
0
TEXT
8
PART_PTS
10
-0.963498
20
-3.1433013333
40
0.889
1
1 2 
71
2
41
0.75
7
W0$127
0
ENDBLK
0
BLOCK
2
PART_BOT_307
8
0
10
0
20
0
3
PART_BOT_307
70
64
0
INSERT
2
SYM_BOT_19
8
0
10
0
20
0
0
INSERT
2
PKG_12
8
0
10
0
20
0
41
-1
0
TEXT
8
LABEL_INFO
10
0
20
0
40
0.56
1
0 0 1 1 0 1
72
1
73
1
11
0
21
0
41
0.75
7
W0$127
0
TEXT
8
LABEL_ATTRIBUTE
10
0
20
0
40
0.56
1
Value
72
1
73
1
11
0
21
0
41
0.75
7
W0$127
0
TEXT
8
ATTRIBUTE_04
10
0
20
0
40
0.56
1
33R
72
1
73
2
11
0
21
0
41
0.75
7
W0$127
0
TEXT
8
LABEL_INFO
10
0.6096
20
0.1524
40
0.56
1
0 324000000 0 0 0 1
50
180
41
0.75
7
W0$0381
0
TEXT
8
LABEL_ATTRIBUTE
10
0.6096
20
0.1524
40
0.56
1
Ref.Des.
50
180
41
0.75
7
W0$0381
0
TEXT
8
PART_NAME_04
10
0.6096
20
0.1524
40
0.56
1
R77
50
180
41
0.75
7
W0$0381
0
TEXT
8
LABEL_INFO
10
-0.963498
20
0.6666986667
40
0.889
1
0 0 0 0 0 1
41
0.75
7
W0$127
0
TEXT
8
LABEL_ATTRIBUTE
10
-0.963498
20
0.6666986667
40
0.889
1
Comment
41
0.75
7
W0$127
0
TEXT
8
ATTRIBUTE_04
10
-0.963498
20
0.6666986667
40
0.889
1
 
41
0.75
7
W0$127
0
TEXT
8
PART_TYPE_BOT
10
-0.963498
20
-0.6033013333
40
0.889
1
R0402
41
0.75
7
W0$127
0
TEXT
8
PART_INFO
10
-0.963498
20
-1.8733013333
40
0.889
1
000000
71
2
41
0.75
7
W0$127
0
TEXT
8
PART_PTS
10
-0.963498
20
-3.1433013333
40
0.889
1
1 2 
71
2
41
0.75
7
W0$127
0
ENDBLK
0
BLOCK
2
PART_BOT_311
8
0
10
0
20
0
3
PART_BOT_311
70
64
0
INSERT
2
SYM_BOT_46
8
0
10
0
20
0
0
INSERT
2
PKG_38
8
0
10
0
20
0
41
-1
0
TEXT
8
LABEL_INFO
10
0
20
0
40
0.56
1
0 0 1 1 0 1
72
1
73
1
11
0
21
0
41
0.75
7
W0$127
0
TEXT
8
LABEL_ATTRIBUTE
10
0
20
0
40
0.56
1
Value
72
1
73
1
11
0
21
0
41
0.75
7
W0$127
0
TEXT
8
ATTRIBUTE_04
10
0
20
0
40
0.56
1
SGM2028-3.0/LP3987H30B5F
72
1
73
2
11
0
21
0
41
0.75
7
W0$127
0
TEXT
8
LABEL_INFO
10
1.524
20
-1.4478
40
0.56
1
0 162000000 0 0 0 1
50
90
41
0.75
7
W0$0381
0
TEXT
8
LABEL_ATTRIBUTE
10
1.524
20
-1.4478
40
0.56
1
Ref.Des.
50
90
41
0.75
7
W0$0381
0
TEXT
8
PART_NAME_04
10
1.524
20
-1.4478
40
0.56
1
U14
50
90
41
0.75
7
W0$0381
0
TEXT
8
PART_TYPE_BOT
10
1.524
20
-2.2478
40
0.56
1
SOT_23_5
50
90
41
0.75
7
W0$0381
0
TEXT
8
PART_INFO
10
1.524
20
-3.0478
40
0.56
1
000000
71
2
50
90
41
0.75
7
W0$0381
0
TEXT
8
PART_PTS
10
1.524
20
-3.8478
40
0.56
1
1 2 3 4 5 
71
2
50
90
41
0.75
7
W0$0381
0
ENDBLK
0
BLOCK
2
PART_BOT_312
8
0
10
0
20
0
3
PART_BOT_312
70
64
0
INSERT
2
SYM_BOT_47
8
0
10
0
20
0
0
INSERT
2
PKG_39
8
0
10
0
20
0
41
-1
0
TEXT
8
LABEL_INFO
10
0
20
0
40
0.56
1
0 0 1 1 0 1
72
1
73
1
11
0
21
0
41
0.75
7
W0$127
0
TEXT
8
LABEL_ATTRIBUTE
10
0
20
0
40
0.56
1
Value
72
1
73
1
11
0
21
0
41
0.75
7
W0$127
0
TEXT
8
ATTRIBUTE_04
10
0
20
0
40
0.56
1
ES8316
72
1
73
2
11
0
21
0
41
0.75
7
W0$127
0
TEXT
8
LABEL_INFO
10
-0.381
20
-0.2286
40
0.56
1
0 0 0 0 0 1
41
0.75
7
W0$0381
0
TEXT
8
LABEL_ATTRIBUTE
10
-0.381
20
-0.2286
40
0.56
1
Ref.Des.
41
0.75
7
W0$0381
0
TEXT
8
PART_NAME_04
10
-0.381
20
-0.2286
40
0.56
1
U13
41
0.75
7
W0$0381
0
TEXT
8
LABEL_INFO
10
6.35
20
1.9558
40
0.889
1
0 0 0 2 0 1
73
2
11
6.35
21
1.9558
41
0.75
7
W0$254
0
TEXT
8
LABEL_ATTRIBUTE
10
6.35
20
1.9558
40
0.889
1
PartType
73
2
11
6.35
21
1.9558
41
0.75
7
W0$254
0
TEXT
8
PART_TYPE_04
10
6.35
20
1.9558
40
0.889
1
QFN32P4X4
73
3
11
6.35
21
1.9558
41
0.75
7
W0$254
0
TEXT
8
PART_INFO
10
6.35
20
0.6858
40
0.889
1
000000
71
2
73
3
11
6.35
21
0.6858
41
0.75
7
W0$254
0
TEXT
8
PART_PTS
10
6.35
20
-0.5842
40
0.889
1
1 2 3 4 5 6 7 8 9 10 11 12 13 14 15 16 17 18 19 20 21 22 23 24 25 26 27 28 29 30 31 32 33 
71
2
73
3
11
6.35
21
-0.5842
41
0.75
7
W0$254
0
ENDBLK
0
BLOCK
2
PART_BOT_313
8
0
10
0
20
0
3
PART_BOT_313
70
64
0
INSERT
2
SYM_BOT_46
8
0
10
0
20
0
0
INSERT
2
PKG_38
8
0
10
0
20
0
41
-1
0
TEXT
8
LABEL_INFO
10
0
20
0
40
0.56
1
0 0 1 1 0 1
72
1
73
1
11
0
21
0
41
0.75
7
W0$127
0
TEXT
8
LABEL_ATTRIBUTE
10
0
20
0
40
0.56
1
Value
72
1
73
1
11
0
21
0
41
0.75
7
W0$127
0
TEXT
8
ATTRIBUTE_04
10
0
20
0
40
0.56
1
SGM2028-1.8/LP3987H18B5F
72
1
73
2
11
0
21
0
41
0.75
7
W0$127
0
TEXT
8
LABEL_INFO
10
1.6002
20
-1.2954
40
0.56
1
0 162000000 0 0 0 1
50
90
41
0.75
7
W0$0381
0
TEXT
8
LABEL_ATTRIBUTE
10
1.6002
20
-1.2954
40
0.56
1
Ref.Des.
50
90
41
0.75
7
W0$0381
0
TEXT
8
PART_NAME_04
10
1.6002
20
-1.2954
40
0.56
1
U15
50
90
41
0.75
7
W0$0381
0
TEXT
8
PART_TYPE_BOT
10
1.6002
20
-2.0954
40
0.56
1
SOT_23_5
50
90
41
0.75
7
W0$0381
0
TEXT
8
PART_INFO
10
1.6002
20
-2.8954
40
0.56
1
000000
71
2
50
90
41
0.75
7
W0$0381
0
TEXT
8
PART_PTS
10
1.6002
20
-3.6954
40
0.56
1
1 2 3 4 5 
71
2
50
90
41
0.75
7
W0$0381
0
ENDBLK
0
BLOCK
2
PART_BOT_314
8
0
10
0
20
0
3
PART_BOT_314
70
64
0
INSERT
2
SYM_BOT_46
8
0
10
0
20
0
0
INSERT
2
PKG_38
8
0
10
0
20
0
41
-1
0
TEXT
8
LABEL_INFO
10
0
20
0
40
0.56
1
0 0 1 1 0 1
72
1
73
1
11
0
21
0
41
0.75
7
W0$127
0
TEXT
8
LABEL_ATTRIBUTE
10
0
20
0
40
0.56
1
Value
72
1
73
1
11
0
21
0
41
0.75
7
W0$127
0
TEXT
8
ATTRIBUTE_04
10
0
20
0
40
0.56
1
SGM2028-3.3/LP3987H33B5F
72
1
73
2
11
0
21
0
41
0.75
7
W0$127
0
TEXT
8
LABEL_INFO
10
1.2192
20
-0.3809993333
40
0.56
1
0 486000000 0 0 0 1
50
270
41
0.75
7
W0$0381
0
TEXT
8
LABEL_ATTRIBUTE
10
1.2192
20
-0.3809993333
40
0.56
1
Ref.Des.
50
270
41
0.75
7
W0$0381
0
TEXT
8
PART_NAME_04
10
1.2192
20
-0.3809993333
40
0.56
1
U12
50
270
41
0.75
7
W0$0381
0
TEXT
8
PART_TYPE_BOT
10
1.2192
20
-1.1809993333
40
0.56
1
SOT_23_5
50
270
41
0.75
7
W0$0381
0
TEXT
8
PART_INFO
10
1.2192
20
-1.9809993333
40
0.56
1
000000
71
2
50
270
41
0.75
7
W0$0381
0
TEXT
8
PART_PTS
10
1.2192
20
-2.7809993333
40
0.56
1
1 2 3 4 5 
71
2
50
270
41
0.75
7
W0$0381
0
ENDBLK
0
BLOCK
2
PART_BOT_315
8
0
10
0
20
0
3
PART_BOT_315
70
64
0
INSERT
2
SYM_BOT_48
8
0
10
0
20
0
0
INSERT
2
PKG_40
8
0
10
0
20
0
41
-1
0
TEXT
8
LABEL_INFO
10
0
20
0
40
0.56
1
0 0 1 1 0 1
72
1
73
1
11
0
21
0
41
0.75
7
W0$127
0
TEXT
8
LABEL_ATTRIBUTE
10
0
20
0
40
0.56
1
Value
72
1
73
1
11
0
21
0
41
0.75
7
W0$127
0
TEXT
8
ATTRIBUTE_04
10
0
20
0
40
0.56
1
M.2
72
1
73
2
11
0
21
0
41
0.75
7
W0$127
0
TEXT
8
LABEL_INFO
10
-0.6915993333
20
-0.797
40
0.56
1
0 162000000 0 0 0 1
50
90
41
0.75
7
W0$0381
0
TEXT
8
LABEL_ATTRIBUTE
10
-0.6915993333
20
-0.797
40
0.56
1
Ref.Des.
50
90
41
0.75
7
W0$0381
0
TEXT
8
PART_NAME_04
10
-0.6915993333
20
-0.797
40
0.56
1
U2
50
90
41
0.75
7
W0$0381
0
TEXT
8
LABEL_INFO
10
-11.0134673333
20
6.2800353333
40
0.889
1
0 0 0 0 0 1
41
0.75
7
W0$127
0
TEXT
8
LABEL_ATTRIBUTE
10
-11.0134673333
20
6.2800353333
40
0.889
1
Comment
41
0.75
7
W0$127
0
TEXT
8
ATTRIBUTE_129
10
-11.0134673333
20
6.2800353333
40
0.889
1
 
41
0.75
7
W0$127
0
TEXT
8
PART_TYPE_BOT
10
-11.0134673333
20
5.0100353333
40
0.889
1
M2_NGFF_KEY_M
41
0.75
7
W0$127
0
TEXT
8
PART_INFO
10
-11.0134673333
20
3.7400353333
40
0.889
1
000010
71
2
41
0.75
7
W0$127
0
TEXT
8
PART_PTS
10
-11.0134673333
20
2.4700353333
40
0.889
1
1 2 3 4 5 6 7 8 9 10 11 12 13 14 15 16 17 18 19 20 21 22 23 24 25 26 27 28 29 30 31 32 33 34 35 36 37 38 39 40 41 42 43 44 45 46 47 48 49 50 51 52 53 54 55 56 57 58 59 60 61 62 63 64 65 66 67 68 69 70 71 
71
2
41
0.75
7
W0$127
0
ENDBLK
0
BLOCK
2
PART_BOT_318
8
0
10
0
20
0
3
PART_BOT_318
70
64
0
INSERT
2
SYM_BOT_52
8
0
10
0
20
0
0
INSERT
2
PKG_44
8
0
10
0
20
0
41
-1
0
TEXT
8
LABEL_INFO
10
0
20
0
40
0.56
1
0 0 1 1 0 1
72
1
73
1
11
0
21
0
41
0.75
7
W0$127
0
TEXT
8
LABEL_ATTRIBUTE
10
0
20
0
40
0.56
1
Value
72
1
73
1
11
0
21
0
41
0.75
7
W0$127
0
TEXT
8
ATTRIBUTE_04
10
0
20
0
40
0.56
1
AO4409
72
1
73
2
11
0
21
0
41
0.75
7
W0$127
0
TEXT
8
LABEL_INFO
10
-2.82575
20
4.7672626667
40
0.889
1
0 0 0 0 0 1
41
0.75
7
W0$127
0
TEXT
8
LABEL_ATTRIBUTE
10
-2.82575
20
4.7672626667
40
0.889
1
Comment
41
0.75
7
W0$127
0
TEXT
8
ATTRIBUTE_129
10
-2.82575
20
4.7672626667
40
0.889
1
 
41
0.75
7
W0$127
0
TEXT
8
LABEL_INFO
10
-0.635
20
-0.0254
40
0.56
1
0 0 0 0 0 1
41
0.75
7
W0$0381
0
TEXT
8
LABEL_ATTRIBUTE
10
-0.635
20
-0.0254
40
0.56
1
Ref.Des.
41
0.75
7
W0$0381
0
TEXT
8
PART_NAME_04
10
-0.635
20
-0.0254
40
0.56
1
U1
41
0.75
7
W0$0381
0
TEXT
8
PART_TYPE_BOT
10
-0.635
20
-0.8254
40
0.56
1
SOP8-50-150
41
0.75
7
W0$0381
0
TEXT
8
PART_INFO
10
-0.635
20
-1.6254
40
0.56
1
000000
71
2
41
0.75
7
W0$0381
0
TEXT
8
PART_PTS
10
-0.635
20
-2.4254
40
0.56
1
1 2 3 4 5 6 7 8 
71
2
41
0.75
7
W0$0381
0
ENDBLK
0
BLOCK
2
PART_BOT_328
8
0
10
0
20
0
3
PART_BOT_328
70
64
0
INSERT
2
SYM_BOT_60
8
0
10
0
20
0
0
INSERT
2
PKG_51
8
0
10
0
20
0
41
-1
0
TEXT
8
LABEL_INFO
10
0
20
0
40
0.56
1
0 0 1 1 0 1
72
1
73
1
11
0
21
0
41
0.75
7
W0$127
0
TEXT
8
LABEL_ATTRIBUTE
10
0
20
0
40
0.56
1
Value
72
1
73
1
11
0
21
0
41
0.75
7
W0$127
0
TEXT
8
ATTRIBUTE_04
10
0
20
0
40
0.56
1
M2_NGFF_KEY_E
72
1
73
2
11
0
21
0
41
0.75
7
W0$127
0
TEXT
8
LABEL_INFO
10
-2.1248
20
-0.0558
40
0.56
1
0 0 0 0 0 1
41
0.75
7
W0$0381
0
TEXT
8
LABEL_ATTRIBUTE
10
-2.1248
20
-0.0558
40
0.56
1
Ref.Des.
41
0.75
7
W0$0381
0
TEXT
8
PART_NAME_04
10
-2.1248
20
-0.0558
40
0.56
1
U7
41
0.75
7
W0$0381
0
TEXT
8
LABEL_INFO
10
-11.0134673333
20
6.2800353333
40
0.889
1
0 0 0 0 0 1
41
0.75
7
W0$127
0
TEXT
8
LABEL_ATTRIBUTE
10
-11.0134673333
20
6.2800353333
40
0.889
1
Comment
41
0.75
7
W0$127
0
TEXT
8
ATTRIBUTE_129
10
-11.0134673333
20
6.2800353333
40
0.889
1
 
41
0.75
7
W0$127
0
TEXT
8
PART_TYPE_BOT
10
-11.0134673333
20
5.0100353333
40
0.889
1
M2_NGFF_KEY_E
41
0.75
7
W0$127
0
TEXT
8
PART_INFO
10
-11.0134673333
20
3.7400353333
40
0.889
1
000010
71
2
41
0.75
7
W0$127
0
TEXT
8
PART_PTS
10
-11.0134673333
20
2.4700353333
40
0.889
1
1 2 3 4 5 6 7 8 9 10 11 12 13 14 15 16 17 18 19 20 21 22 23 24 25 26 27 28 29 30 31 32 33 34 35 36 37 38 39 40 41 42 43 44 45 46 47 48 49 50 51 52 53 54 55 56 57 58 59 60 61 62 63 64 65 66 67 68 69 70 71 
71
2
41
0.75
7
W0$127
0
ENDBLK
0
BLOCK
2
PART_BOT_329
8
0
10
0
20
0
3
PART_BOT_329
70
64
0
INSERT
2
SYM_BOT_46
8
0
10
0
20
0
0
INSERT
2
PKG_38
8
0
10
0
20
0
41
-1
0
TEXT
8
LABEL_INFO
10
0
20
0
40
0.56
1
0 0 1 1 0 1
72
1
73
1
11
0
21
0
41
0.75
7
W0$127
0
TEXT
8
LABEL_ATTRIBUTE
10
0
20
0
40
0.56
1
Value
72
1
73
1
11
0
21
0
41
0.75
7
W0$127
0
TEXT
8
ATTRIBUTE_04
10
0
20
0
40
0.56
1
SGM2028-3.3/LP3987H33B5F
72
1
73
2
11
0
21
0
41
0.75
7
W0$127
0
TEXT
8
LABEL_INFO
10
1.2954
20
-0.3047993333
40
0.56
1
0 486000000 0 0 0 1
50
270
41
0.75
7
W0$0381
0
TEXT
8
LABEL_ATTRIBUTE
10
1.2954
20
-0.3047993333
40
0.56
1
Ref.Des.
50
270
41
0.75
7
W0$0381
0
TEXT
8
PART_NAME_04
10
1.2954
20
-0.3047993333
40
0.56
1
U11
50
270
41
0.75
7
W0$0381
0
TEXT
8
PART_TYPE_BOT
10
1.2954
20
-1.1047993333
40
0.56
1
SOT_23_5
50
270
41
0.75
7
W0$0381
0
TEXT
8
PART_INFO
10
1.2954
20
-1.9047993333
40
0.56
1
000000
71
2
50
270
41
0.75
7
W0$0381
0
TEXT
8
PART_PTS
10
1.2954
20
-2.7047993333
40
0.56
1
1 2 3 4 5 
71
2
50
270
41
0.75
7
W0$0381
0
ENDBLK
0
BLOCK
2
PART_BOT_330
8
0
10
0
20
0
3
PART_BOT_330
70
64
0
INSERT
2
SYM_BOT_55
8
0
10
0
20
0
0
INSERT
2
PKG_47
8
0
10
0
20
0
41
-1
0
TEXT
8
LABEL_INFO
10
0
20
0
40
0.56
1
0 0 1 1 0 1
72
1
73
1
11
0
21
0
41
0.75
7
W0$127
0
TEXT
8
LABEL_ATTRIBUTE
10
0
20
0
40
0.56
1
Value
72
1
73
1
11
0
21
0
41
0.75
7
W0$127
0
TEXT
8
ATTRIBUTE_04
10
0
20
0
40
0.56
1
MP1495S
72
1
73
2
11
0
21
0
41
0.75
7
W0$127
0
TEXT
8
LABEL_INFO
10
0.2285993333
20
0.3048
40
0.56
1
0 324000000 0 0 0 1
50
180
41
0.75
7
W0$0381
0
TEXT
8
LABEL_ATTRIBUTE
10
0.2285993333
20
0.3048
40
0.56
1
Ref.Des.
50
180
41
0.75
7
W0$0381
0
TEXT
8
PART_NAME_04
10
0.2285993333
20
0.3048
40
0.56
1
U3
50
180
41
0.75
7
W0$0381
0
TEXT
8
LABEL_INFO
10
-3.51
20
0.24
40
0.42
1
0 0 0 2 0 1
73
2
11
-3.51
21
0.24
41
0.75
7
W0$254
0
TEXT
8
LABEL_ATTRIBUTE
10
-3.51
20
0.24
40
0.42
1
Value
73
2
11
-3.51
21
0.24
41
0.75
7
W0$254
0
TEXT
8
ATTRIBUTE_04
10
-3.51
20
0.24
40
0.42
1
MP1495S
73
3
11
-3.51
21
0.24
41
0.75
7
W0$254
0
TEXT
8
PART_TYPE_BOT
10
-3.51
20
-0.36
40
0.42
1
SOT23-8
73
3
11
-3.51
21
-0.36
41
0.75
7
W0$254
0
TEXT
8
PART_INFO
10
-3.51
20
-0.96
40
0.42
1
000000
71
2
73
3
11
-3.51
21
-0.96
41
0.75
7
W0$254
0
TEXT
8
PART_PTS
10
-3.51
20
-1.56
40
0.42
1
1 2 3 4 5 6 7 8 
71
2
73
3
11
-3.51
21
-1.56
41
0.75
7
W0$254
0
ENDBLK
0
BLOCK
2
PART_BOT_334
8
0
10
0
20
0
3
PART_BOT_334
70
64
0
INSERT
2
SYM_BOT_72
8
0
10
0
20
0
0
INSERT
2
PKG_56
8
0
10
0
20
0
41
-1
0
TEXT
8
LABEL_INFO
10
0
20
0
40
0.56
1
0 0 1 1 0 1
72
1
73
1
11
0
21
0
41
0.75
7
W0$127
0
TEXT
8
LABEL_ATTRIBUTE
10
0
20
0
40
0.56
1
Value
72
1
73
1
11
0
21
0
41
0.75
7
W0$127
0
TEXT
8
ATTRIBUTE_04
10
0
20
0
40
0.56
1
CON1
72
1
73
2
11
0
21
0
41
0.75
7
W0$127
0
TEXT
8
LABEL_INFO
10
-0.3
20
0.21
40
0.889
1
0 0 0 2 0 1
73
2
11
-0.3
21
0.21
41
0.75
7
W0$127
0
TEXT
8
LABEL_ATTRIBUTE
10
-0.3
20
0.21
40
0.889
1
PartType
73
2
11
-0.3
21
0.21
41
0.75
7
W0$127
0
TEXT
8
PART_TYPE_04
10
-0.3
20
0.21
40
0.889
1
H2.8MM
73
3
11
-0.3
21
0.21
41
0.75
7
W0$127
0
TEXT
8
LABEL_INFO
10
-0.382
20
-0.0412
40
0.56
1
0 0 0 0 0 1
41
0.75
7
W0$0381
0
TEXT
8
LABEL_ATTRIBUTE
10
-0.382
20
-0.0412
40
0.56
1
Ref.Des.
41
0.75
7
W0$0381
0
TEXT
8
PART_NAME_04
10
-0.382
20
-0.0412
40
0.56
1
J16
41
0.75
7
W0$0381
0
TEXT
8
PART_INFO
10
-0.382
20
-0.8412
40
0.56
1
000110
71
2
41
0.75
7
W0$0381
0
TEXT
8
PART_PTS
10
-0.382
20
-1.6412
40
0.56
1
1 
71
2
41
0.75
7
W0$0381
0
ENDBLK
0
BLOCK
2
PART_BOT_335
8
0
10
0
20
0
3
PART_BOT_335
70
64
0
INSERT
2
SYM_BOT_72
8
0
10
0
20
0
0
INSERT
2
PKG_56
8
0
10
0
20
0
41
-1
0
TEXT
8
LABEL_INFO
10
0
20
0
40
0.56
1
0 0 1 1 0 1
72
1
73
1
11
0
21
0
41
0.75
7
W0$127
0
TEXT
8
LABEL_ATTRIBUTE
10
0
20
0
40
0.56
1
Value
72
1
73
1
11
0
21
0
41
0.75
7
W0$127
0
TEXT
8
ATTRIBUTE_04
10
0
20
0
40
0.56
1
CON1
72
1
73
2
11
0
21
0
41
0.75
7
W0$127
0
TEXT
8
LABEL_INFO
10
-0.3
20
0.21
40
0.889
1
0 0 0 2 0 1
73
2
11
-0.3
21
0.21
41
0.75
7
W0$127
0
TEXT
8
LABEL_ATTRIBUTE
10
-0.3
20
0.21
40
0.889
1
PartType
73
2
11
-0.3
21
0.21
41
0.75
7
W0$127
0
TEXT
8
PART_TYPE_04
10
-0.3
20
0.21
40
0.889
1
H2.8MM
73
3
11
-0.3
21
0.21
41
0.75
7
W0$127
0
TEXT
8
LABEL_INFO
10
-0.3
20
0.21
40
0.56
1
0 0 0 0 0 1
41
0.75
7
W0$0381
0
TEXT
8
LABEL_ATTRIBUTE
10
-0.3
20
0.21
40
0.56
1
Ref.Des.
41
0.75
7
W0$0381
0
TEXT
8
PART_NAME_04
10
-0.3
20
0.21
40
0.56
1
J17
41
0.75
7
W0$0381
0
TEXT
8
PART_INFO
10
-0.3
20
-0.59
40
0.56
1
000110
71
2
41
0.75
7
W0$0381
0
TEXT
8
PART_PTS
10
-0.3
20
-1.39
40
0.56
1
1 
71
2
41
0.75
7
W0$0381
0
ENDBLK
0
BLOCK
2
PART_BOT_336
8
0
10
0
20
0
3
PART_BOT_336
70
64
0
INSERT
2
SYM_BOT_66
8
0
10
0
20
0
0
INSERT
2
PKG_57
8
0
10
0
20
0
41
-1
0
TEXT
8
LABEL_INFO
10
0
20
0
40
0.56
1
0 0 1 1 0 1
72
1
73
1
11
0
21
0
41
0.75
7
W0$127
0
TEXT
8
LABEL_ATTRIBUTE
10
0
20
0
40
0.56
1
Value
72
1
73
1
11
0
21
0
41
0.75
7
W0$127
0
TEXT
8
ATTRIBUTE_04
10
0
20
0
40
0.56
1
MARK
72
1
73
2
11
0
21
0
41
0.75
7
W0$127
0
TEXT
8
PART_NAME_BOT
10
0
20
0
40
1.778
1
M1
73
2
11
0
21
0
41
0.75
7
W0$254
0
TEXT
8
PART_TYPE_BOT
10
0
20
-2.54
40
1.778
1
MARK
73
2
11
0
21
-2.54
41
0.75
7
W0$254
0
TEXT
8
PART_INFO
10
0
20
-5.08
40
1.778
1
000000
71
2
73
2
11
0
21
-5.08
41
0.75
7
W0$254
0
TEXT
8
PART_PTS
10
0
20
-7.62
40
1.778
1
1 
71
2
73
2
11
0
21
-7.62
41
0.75
7
W0$254
0
ENDBLK
0
BLOCK
2
PART_BOT_338
8
0
10
0
20
0
3
PART_BOT_338
70
64
0
INSERT
2
SYM_BOT_66
8
0
10
0
20
0
0
INSERT
2
PKG_57
8
0
10
0
20
0
41
-1
0
TEXT
8
LABEL_INFO
10
0
20
0
40
0.56
1
0 0 1 1 0 1
72
1
73
1
11
0
21
0
41
0.75
7
W0$127
0
TEXT
8
LABEL_ATTRIBUTE
10
0
20
0
40
0.56
1
Value
72
1
73
1
11
0
21
0
41
0.75
7
W0$127
0
TEXT
8
ATTRIBUTE_04
10
0
20
0
40
0.56
1
MARK
72
1
73
2
11
0
21
0
41
0.75
7
W0$127
0
TEXT
8
PART_NAME_BOT
10
0
20
0
40
1.778
1
M3
73
2
11
0
21
0
41
0.75
7
W0$254
0
TEXT
8
PART_TYPE_BOT
10
0
20
-2.54
40
1.778
1
MARK
73
2
11
0
21
-2.54
41
0.75
7
W0$254
0
TEXT
8
PART_INFO
10
0
20
-5.08
40
1.778
1
000000
71
2
73
2
11
0
21
-5.08
41
0.75
7
W0$254
0
TEXT
8
PART_PTS
10
0
20
-7.62
40
1.778
1
1 
71
2
73
2
11
0
21
-7.62
41
0.75
7
W0$254
0
ENDBLK
0
BLOCK
2
PART_BOT_341
8
0
10
0
20
0
3
PART_BOT_341
70
64
0
INSERT
2
SYM_BOT_66
8
0
10
0
20
0
0
INSERT
2
PKG_57
8
0
10
0
20
0
41
-1
0
TEXT
8
LABEL_INFO
10
0
20
0
40
0.56
1
0 0 1 1 0 1
72
1
73
1
11
0
21
0
41
0.75
7
W0$127
0
TEXT
8
LABEL_ATTRIBUTE
10
0
20
0
40
0.56
1
Value
72
1
73
1
11
0
21
0
41
0.75
7
W0$127
0
TEXT
8
ATTRIBUTE_04
10
0
20
0
40
0.56
1
MARK
72
1
73
2
11
0
21
0
41
0.75
7
W0$127
0
TEXT
8
PART_NAME_BOT
10
0
20
0
40
1.778
1
M6
73
2
11
0
21
0
41
0.75
7
W0$254
0
TEXT
8
PART_TYPE_BOT
10
0
20
-2.54
40
1.778
1
MARK
73
2
11
0
21
-2.54
41
0.75
7
W0$254
0
TEXT
8
PART_INFO
10
0
20
-5.08
40
1.778
1
000000
71
2
73
2
11
0
21
-5.08
41
0.75
7
W0$254
0
TEXT
8
PART_PTS
10
0
20
-7.62
40
1.778
1
1 
71
2
73
2
11
0
21
-7.62
41
0.75
7
W0$254
0
ENDBLK
0
BLOCK
2
PART_BOT_342
8
0
10
0
20
0
3
PART_BOT_342
70
64
0
INSERT
2
SYM_BOT_66
8
0
10
0
20
0
0
INSERT
2
PKG_57
8
0
10
0
20
0
41
-1
0
TEXT
8
LABEL_INFO
10
0
20
0
40
0.56
1
0 0 1 1 0 1
72
1
73
1
11
0
21
0
41
0.75
7
W0$127
0
TEXT
8
LABEL_ATTRIBUTE
10
0
20
0
40
0.56
1
Value
72
1
73
1
11
0
21
0
41
0.75
7
W0$127
0
TEXT
8
ATTRIBUTE_04
10
0
20
0
40
0.56
1
MARK
72
1
73
2
11
0
21
0
41
0.75
7
W0$127
0
TEXT
8
PART_NAME_BOT
10
0
20
0
40
1.778
1
M7
73
2
11
0
21
0
41
0.75
7
W0$254
0
TEXT
8
PART_TYPE_BOT
10
0
20
-2.54
40
1.778
1
MARK
73
2
11
0
21
-2.54
41
0.75
7
W0$254
0
TEXT
8
PART_INFO
10
0
20
-5.08
40
1.778
1
000000
71
2
73
2
11
0
21
-5.08
41
0.75
7
W0$254
0
TEXT
8
PART_PTS
10
0
20
-7.62
40
1.778
1
1 
71
2
73
2
11
0
21
-7.62
41
0.75
7
W0$254
0
ENDBLK
0
BLOCK
2
PART_BOT_346
8
0
10
0
20
0
3
PART_BOT_346
70
64
0
INSERT
2
SYM_BOT_19
8
0
10
0
20
0
0
INSERT
2
PKG_12
8
0
10
0
20
0
41
-1
0
TEXT
8
LABEL_INFO
10
-0.963498
20
0.6666986667
40
0.889
1
0 0 0 0 0 1
41
0.75
7
W0$127
0
TEXT
8
LABEL_ATTRIBUTE
10
-0.963498
20
0.6666986667
40
0.889
1
Comment
41
0.75
7
W0$127
0
TEXT
8
ATTRIBUTE_04
10
-0.963498
20
0.6666986667
40
0.889
1
 
41
0.75
7
W0$127
0
TEXT
8
LABEL_INFO
10
-0.598
20
-0.155
40
0.56
1
0 0 0 0 0 1
41
0.75
7
W0$04
0
TEXT
8
LABEL_ATTRIBUTE
10
-0.598
20
-0.155
40
0.56
1
Ref.Des.
41
0.75
7
W0$04
0
TEXT
8
PART_NAME_04
10
-0.598
20
-0.155
40
0.56
1
R124
41
0.75
7
W0$04
0
TEXT
8
PART_TYPE_BOT
10
-0.598
20
-0.955
40
0.56
1
R0402
41
0.75
7
W0$04
0
TEXT
8
PART_INFO
10
-0.598
20
-1.755
40
0.56
1
000000
71
2
41
0.75
7
W0$04
0
TEXT
8
PART_PTS
10
-0.598
20
-2.555
40
0.56
1
1 2 
71
2
41
0.75
7
W0$04
0
ENDBLK
0
BLOCK
2
PART_BOT_348
8
0
10
0
20
0
3
PART_BOT_348
70
64
0
INSERT
2
SYM_BOT_69
8
0
10
0
20
0
0
INSERT
2
PKG_59
8
0
10
0
20
0
41
-1
0
TEXT
8
LABEL_INFO
10
-0.985
20
-0.43
40
0.56
1
0 0 0 0 0 1
41
0.75
7
W0$05127
0
TEXT
8
LABEL_ATTRIBUTE
10
-0.985
20
-0.43
40
0.56
1
Ref.Des.
41
0.75
7
W0$05127
0
TEXT
8
PART_NAME_04
10
-0.985
20
-0.43
40
0.56
1
U90055
41
0.75
7
W0$05127
0
TEXT
8
LABEL_INFO
10
2.0463333333
20
0.2043333333
40
0.889
1
0 0 0 2 0 1
73
2
11
2.0463333333
21
0.2043333333
41
0.75
7
W0$127
0
TEXT
8
LABEL_ATTRIBUTE
10
2.0463333333
20
0.2043333333
40
0.889
1
PartType
73
2
11
2.0463333333
21
0.2043333333
41
0.75
7
W0$127
0
TEXT
8
PART_TYPE_04
10
2.0463333333
20
0.2043333333
40
0.889
1
CSP-12
73
3
11
2.0463333333
21
0.2043333333
41
0.75
7
W0$127
0
TEXT
8
PART_INFO
10
2.0463333333
20
-1.0656666667
40
0.889
1
000000
71
2
73
3
11
2.0463333333
21
-1.0656666667
41
0.75
7
W0$127
0
TEXT
8
PART_PTS
10
2.0463333333
20
-2.3356666667
40
0.889
1
1 2 3 4 5 6 7 8 9 10 11 12 
71
2
73
3
11
2.0463333333
21
-2.3356666667
41
0.75
7
W0$127
0
ENDBLK
0
BLOCK
2
PART_BOT_351
8
0
10
0
20
0
3
PART_BOT_351
70
64
0
INSERT
2
SYM_BOT_19
8
0
10
0
20
0
0
INSERT
2
PKG_12
8
0
10
0
20
0
41
-1
0
TEXT
8
LABEL_INFO
10
-0.963498
20
0.6666986667
40
0.889
1
0 0 0 0 0 1
41
0.75
7
W0$127
0
TEXT
8
LABEL_ATTRIBUTE
10
-0.963498
20
0.6666986667
40
0.889
1
Comment
41
0.75
7
W0$127
0
TEXT
8
ATTRIBUTE_04
10
-0.963498
20
0.6666986667
40
0.889
1
 
41
0.75
7
W0$127
0
TEXT
8
LABEL_INFO
10
-0.598
20
-0.155
40
0.56
1
0 0 0 0 0 1
41
0.75
7
W0$04
0
TEXT
8
LABEL_ATTRIBUTE
10
-0.598
20
-0.155
40
0.56
1
Ref.Des.
41
0.75
7
W0$04
0
TEXT
8
PART_NAME_04
10
-0.598
20
-0.155
40
0.56
1
R126
41
0.75
7
W0$04
0
TEXT
8
PART_TYPE_BOT
10
-0.598
20
-0.955
40
0.56
1
R0402
41
0.75
7
W0$04
0
TEXT
8
PART_INFO
10
-0.598
20
-1.755
40
0.56
1
000000
71
2
41
0.75
7
W0$04
0
TEXT
8
PART_PTS
10
-0.598
20
-2.555
40
0.56
1
1 2 
71
2
41
0.75
7
W0$04
0
ENDBLK
0
BLOCK
2
PART_BOT_352
8
0
10
0
20
0
3
PART_BOT_352
70
64
0
INSERT
2
SYM_BOT_19
8
0
10
0
20
0
0
INSERT
2
PKG_12
8
0
10
0
20
0
41
-1
0
TEXT
8
LABEL_INFO
10
-0.963498
20
0.6666986667
40
0.889
1
0 0 0 0 0 1
41
0.75
7
W0$127
0
TEXT
8
LABEL_ATTRIBUTE
10
-0.963498
20
0.6666986667
40
0.889
1
Comment
41
0.75
7
W0$127
0
TEXT
8
ATTRIBUTE_04
10
-0.963498
20
0.6666986667
40
0.889
1
 
41
0.75
7
W0$127
0
TEXT
8
LABEL_INFO
10
-0.598
20
-0.155
40
0.56
1
0 0 0 0 0 1
41
0.75
7
W0$04
0
TEXT
8
LABEL_ATTRIBUTE
10
-0.598
20
-0.155
40
0.56
1
Ref.Des.
41
0.75
7
W0$04
0
TEXT
8
PART_NAME_04
10
-0.598
20
-0.155
40
0.56
1
R127
41
0.75
7
W0$04
0
TEXT
8
PART_TYPE_BOT
10
-0.598
20
-0.955
40
0.56
1
R0402
41
0.75
7
W0$04
0
TEXT
8
PART_INFO
10
-0.598
20
-1.755
40
0.56
1
000000
71
2
41
0.75
7
W0$04
0
TEXT
8
PART_PTS
10
-0.598
20
-2.555
40
0.56
1
1 2 
71
2
41
0.75
7
W0$04
0
ENDBLK
0
BLOCK
2
PART_BOT_353
8
0
10
0
20
0
3
PART_BOT_353
70
64
0
INSERT
2
SYM_BOT_19
8
0
10
0
20
0
0
INSERT
2
PKG_12
8
0
10
0
20
0
41
-1
0
TEXT
8
LABEL_INFO
10
-0.963498
20
0.6666986667
40
0.889
1
0 0 0 0 0 1
41
0.75
7
W0$127
0
TEXT
8
LABEL_ATTRIBUTE
10
-0.963498
20
0.6666986667
40
0.889
1
Comment
41
0.75
7
W0$127
0
TEXT
8
ATTRIBUTE_04
10
-0.963498
20
0.6666986667
40
0.889
1
 
41
0.75
7
W0$127
0
TEXT
8
LABEL_INFO
10
-0.598
20
-0.155
40
0.56
1
0 0 0 0 0 1
41
0.75
7
W0$04
0
TEXT
8
LABEL_ATTRIBUTE
10
-0.598
20
-0.155
40
0.56
1
Ref.Des.
41
0.75
7
W0$04
0
TEXT
8
PART_NAME_04
10
-0.598
20
-0.155
40
0.56
1
R128
41
0.75
7
W0$04
0
TEXT
8
PART_TYPE_BOT
10
-0.598
20
-0.955
40
0.56
1
R0402
41
0.75
7
W0$04
0
TEXT
8
PART_INFO
10
-0.598
20
-1.755
40
0.56
1
000000
71
2
41
0.75
7
W0$04
0
TEXT
8
PART_PTS
10
-0.598
20
-2.555
40
0.56
1
1 2 
71
2
41
0.75
7
W0$04
0
ENDBLK
0
BLOCK
2
PART_BOT_354
8
0
10
0
20
0
3
PART_BOT_354
70
64
0
INSERT
2
SYM_BOT_19
8
0
10
0
20
0
0
INSERT
2
PKG_12
8
0
10
0
20
0
41
-1
0
TEXT
8
LABEL_INFO
10
-0.963498
20
0.6666986667
40
0.889
1
0 0 0 0 0 1
41
0.75
7
W0$127
0
TEXT
8
LABEL_ATTRIBUTE
10
-0.963498
20
0.6666986667
40
0.889
1
Comment
41
0.75
7
W0$127
0
TEXT
8
ATTRIBUTE_04
10
-0.963498
20
0.6666986667
40
0.889
1
 
41
0.75
7
W0$127
0
TEXT
8
LABEL_INFO
10
-0.598
20
-0.155
40
0.56
1
0 0 0 0 0 1
41
0.75
7
W0$04
0
TEXT
8
LABEL_ATTRIBUTE
10
-0.598
20
-0.155
40
0.56
1
Ref.Des.
41
0.75
7
W0$04
0
TEXT
8
PART_NAME_04
10
-0.598
20
-0.155
40
0.56
1
R129
41
0.75
7
W0$04
0
TEXT
8
PART_TYPE_BOT
10
-0.598
20
-0.955
40
0.56
1
R0402
41
0.75
7
W0$04
0
TEXT
8
PART_INFO
10
-0.598
20
-1.755
40
0.56
1
000000
71
2
41
0.75
7
W0$04
0
TEXT
8
PART_PTS
10
-0.598
20
-2.555
40
0.56
1
1 2 
71
2
41
0.75
7
W0$04
0
ENDBLK
0
BLOCK
2
PART_BOT_355
8
0
10
0
20
0
3
PART_BOT_355
70
64
0
INSERT
2
SYM_BOT_39
8
0
10
0
20
0
0
INSERT
2
PKG_31
8
0
10
0
20
0
41
-1
0
TEXT
8
LABEL_INFO
10
0
20
0
40
0.7
1
1 0 1 1 0 1
72
1
73
1
11
0
21
0
41
0.75
7
W0$127
0
TEXT
8
LABEL_ATTRIBUTE
10
0
20
0
40
0.7
1
Value
72
1
73
1
11
0
21
0
41
0.75
7
W0$127
0
TEXT
8
ATTRIBUTE_129
10
0
20
0
40
0.7
1
 
72
1
73
2
11
0
21
0
50
-180
41
0.75
7
W0$127
0
TEXT
8
LABEL_INFO
10
0
20
0
40
0.56
1
1 0 1 1 0 1
72
1
73
1
11
0
21
0
41
0.75
7
W0$05127
0
TEXT
8
LABEL_ATTRIBUTE
10
0
20
0
40
0.56
1
Ref.Des.
72
1
73
1
11
0
21
0
41
0.75
7
W0$05127
0
TEXT
8
PART_NAME_129
10
0
20
0
40
0.56
1
Q10
72
1
73
2
11
0
21
0
50
-180
41
0.75
7
W0$05127
0
TEXT
8
LABEL_INFO
10
0
20
0
40
0.7
1
1 0 1 1 0 1
72
1
73
1
11
0
21
0
41
0.75
7
W0$127
0
TEXT
8
LABEL_ATTRIBUTE
10
0
20
0
40
0.7
1
PartType
72
1
73
1
11
0
21
0
41
0.75
7
W0$127
0
TEXT
8
PART_TYPE_129
10
0
20
0
40
0.7
1
SOT_323
72
1
73
2
11
0
21
0
50
-180
41
0.75
7
W0$127
0
TEXT
8
PART_INFO
10
0
20
-1
40
0.7
1
000000
71
2
72
1
73
2
11
0
21
-1
50
-180
41
0.75
7
W0$127
0
TEXT
8
PART_PTS
10
0
20
-2
40
0.7
1
1 2 3 
71
2
72
1
73
2
11
0
21
-2
50
-180
41
0.75
7
W0$127
0
ENDBLK
0
BLOCK
2
PART_BOT_356
8
0
10
0
20
0
3
PART_BOT_356
70
64
0
INSERT
2
SYM_BOT_39
8
0
10
0
20
0
0
INSERT
2
PKG_31
8
0
10
0
20
0
41
-1
0
TEXT
8
LABEL_INFO
10
0
20
0
40
0.7
1
1 0 1 1 0 1
72
1
73
1
11
0
21
0
41
0.75
7
W0$127
0
TEXT
8
LABEL_ATTRIBUTE
10
0
20
0
40
0.7
1
Value
72
1
73
1
11
0
21
0
41
0.75
7
W0$127
0
TEXT
8
ATTRIBUTE_129
10
0
20
0
40
0.7
1
 
72
1
73
2
11
0
21
0
50
-180
41
0.75
7
W0$127
0
TEXT
8
LABEL_INFO
10
0
20
0
40
0.56
1
1 0 1 1 0 1
72
1
73
1
11
0
21
0
41
0.75
7
W0$05127
0
TEXT
8
LABEL_ATTRIBUTE
10
0
20
0
40
0.56
1
Ref.Des.
72
1
73
1
11
0
21
0
41
0.75
7
W0$05127
0
TEXT
8
PART_NAME_129
10
0
20
0
40
0.56
1
Q11
72
1
73
2
11
0
21
0
50
-180
41
0.75
7
W0$05127
0
TEXT
8
LABEL_INFO
10
0
20
0
40
0.7
1
1 0 1 1 0 1
72
1
73
1
11
0
21
0
41
0.75
7
W0$127
0
TEXT
8
LABEL_ATTRIBUTE
10
0
20
0
40
0.7
1
PartType
72
1
73
1
11
0
21
0
41
0.75
7
W0$127
0
TEXT
8
PART_TYPE_129
10
0
20
0
40
0.7
1
SOT_323
72
1
73
2
11
0
21
0
50
-180
41
0.75
7
W0$127
0
TEXT
8
PART_INFO
10
0
20
-1
40
0.7
1
000000
71
2
72
1
73
2
11
0
21
-1
50
-180
41
0.75
7
W0$127
0
TEXT
8
PART_PTS
10
0
20
-2
40
0.7
1
1 2 3 
71
2
72
1
73
2
11
0
21
-2
50
-180
41
0.75
7
W0$127
0
ENDBLK
0
BLOCK
2
PART_BOT_358
8
0
10
0
20
0
3
PART_BOT_358
70
64
0
INSERT
2
SYM_BOT_19
8
0
10
0
20
0
0
INSERT
2
PKG_12
8
0
10
0
20
0
41
-1
0
TEXT
8
LABEL_INFO
10
-0.963498
20
0.6666986667
40
0.889
1
0 0 0 0 0 1
41
0.75
7
W0$127
0
TEXT
8
LABEL_ATTRIBUTE
10
-0.963498
20
0.6666986667
40
0.889
1
Comment
41
0.75
7
W0$127
0
TEXT
8
ATTRIBUTE_04
10
-0.963498
20
0.6666986667
40
0.889
1
 
41
0.75
7
W0$127
0
TEXT
8
LABEL_INFO
10
-0.598
20
-0.155
40
0.56
1
0 0 0 0 0 1
41
0.75
7
W0$04
0
TEXT
8
LABEL_ATTRIBUTE
10
-0.598
20
-0.155
40
0.56
1
Ref.Des.
41
0.75
7
W0$04
0
TEXT
8
PART_NAME_04
10
-0.598
20
-0.155
40
0.56
1
R131
41
0.75
7
W0$04
0
TEXT
8
PART_TYPE_BOT
10
-0.598
20
-0.955
40
0.56
1
R0402
41
0.75
7
W0$04
0
TEXT
8
PART_INFO
10
-0.598
20
-1.755
40
0.56
1
000000
71
2
41
0.75
7
W0$04
0
TEXT
8
PART_PTS
10
-0.598
20
-2.555
40
0.56
1
1 2 
71
2
41
0.75
7
W0$04
0
ENDBLK
0
BLOCK
2
PART_BOT_359
8
0
10
0
20
0
3
PART_BOT_359
70
64
0
INSERT
2
SYM_BOT_19
8
0
10
0
20
0
0
INSERT
2
PKG_12
8
0
10
0
20
0
41
-1
0
TEXT
8
LABEL_INFO
10
-0.963498
20
0.6666986667
40
0.889
1
0 0 0 0 0 1
41
0.75
7
W0$127
0
TEXT
8
LABEL_ATTRIBUTE
10
-0.963498
20
0.6666986667
40
0.889
1
Comment
41
0.75
7
W0$127
0
TEXT
8
ATTRIBUTE_04
10
-0.963498
20
0.6666986667
40
0.889
1
 
41
0.75
7
W0$127
0
TEXT
8
LABEL_INFO
10
-0.598
20
-0.155
40
0.56
1
0 0 0 0 0 1
41
0.75
7
W0$04
0
TEXT
8
LABEL_ATTRIBUTE
10
-0.598
20
-0.155
40
0.56
1
Ref.Des.
41
0.75
7
W0$04
0
TEXT
8
PART_NAME_04
10
-0.598
20
-0.155
40
0.56
1
R132
41
0.75
7
W0$04
0
TEXT
8
PART_TYPE_BOT
10
-0.598
20
-0.955
40
0.56
1
R0402
41
0.75
7
W0$04
0
TEXT
8
PART_INFO
10
-0.598
20
-1.755
40
0.56
1
000000
71
2
41
0.75
7
W0$04
0
TEXT
8
PART_PTS
10
-0.598
20
-2.555
40
0.56
1
1 2 
71
2
41
0.75
7
W0$04
0
ENDBLK
0
BLOCK
2
PART_BOT_360
8
0
10
0
20
0
3
PART_BOT_360
70
64
0
INSERT
2
SYM_BOT_19
8
0
10
0
20
0
0
INSERT
2
PKG_12
8
0
10
0
20
0
41
-1
0
TEXT
8
LABEL_INFO
10
-0.963498
20
0.6666986667
40
0.889
1
0 0 0 0 0 1
41
0.75
7
W0$127
0
TEXT
8
LABEL_ATTRIBUTE
10
-0.963498
20
0.6666986667
40
0.889
1
Comment
41
0.75
7
W0$127
0
TEXT
8
ATTRIBUTE_04
10
-0.963498
20
0.6666986667
40
0.889
1
 
41
0.75
7
W0$127
0
TEXT
8
LABEL_INFO
10
-0.598
20
-0.155
40
0.56
1
0 0 0 0 0 1
41
0.75
7
W0$04
0
TEXT
8
LABEL_ATTRIBUTE
10
-0.598
20
-0.155
40
0.56
1
Ref.Des.
41
0.75
7
W0$04
0
TEXT
8
PART_NAME_04
10
-0.598
20
-0.155
40
0.56
1
R133
41
0.75
7
W0$04
0
TEXT
8
PART_TYPE_BOT
10
-0.598
20
-0.955
40
0.56
1
R0402
41
0.75
7
W0$04
0
TEXT
8
PART_INFO
10
-0.598
20
-1.755
40
0.56
1
000000
71
2
41
0.75
7
W0$04
0
TEXT
8
PART_PTS
10
-0.598
20
-2.555
40
0.56
1
1 2 
71
2
41
0.75
7
W0$04
0
ENDBLK
0
BLOCK
2
PART_BOT_361
8
0
10
0
20
0
3
PART_BOT_361
70
64
0
INSERT
2
SYM_BOT_19
8
0
10
0
20
0
0
INSERT
2
PKG_12
8
0
10
0
20
0
41
-1
0
TEXT
8
LABEL_INFO
10
-0.963498
20
0.6666986667
40
0.889
1
0 0 0 0 0 1
41
0.75
7
W0$127
0
TEXT
8
LABEL_ATTRIBUTE
10
-0.963498
20
0.6666986667
40
0.889
1
Comment
41
0.75
7
W0$127
0
TEXT
8
ATTRIBUTE_04
10
-0.963498
20
0.6666986667
40
0.889
1
 
41
0.75
7
W0$127
0
TEXT
8
LABEL_INFO
10
-0.598
20
-0.155
40
0.56
1
0 0 0 0 0 1
41
0.75
7
W0$04
0
TEXT
8
LABEL_ATTRIBUTE
10
-0.598
20
-0.155
40
0.56
1
Ref.Des.
41
0.75
7
W0$04
0
TEXT
8
PART_NAME_04
10
-0.598
20
-0.155
40
0.56
1
R134
41
0.75
7
W0$04
0
TEXT
8
PART_TYPE_BOT
10
-0.598
20
-0.955
40
0.56
1
R0402
41
0.75
7
W0$04
0
TEXT
8
PART_INFO
10
-0.598
20
-1.755
40
0.56
1
000000
71
2
41
0.75
7
W0$04
0
TEXT
8
PART_PTS
10
-0.598
20
-2.555
40
0.56
1
1 2 
71
2
41
0.75
7
W0$04
0
ENDBLK
0
BLOCK
2
PART_BOT_362
8
0
10
0
20
0
3
PART_BOT_362
70
64
0
INSERT
2
SYM_BOT_39
8
0
10
0
20
0
0
INSERT
2
PKG_31
8
0
10
0
20
0
41
-1
0
TEXT
8
LABEL_INFO
10
0
20
0
40
0.7
1
1 0 1 1 0 1
72
1
73
1
11
0
21
0
41
0.75
7
W0$127
0
TEXT
8
LABEL_ATTRIBUTE
10
0
20
0
40
0.7
1
Value
72
1
73
1
11
0
21
0
41
0.75
7
W0$127
0
TEXT
8
ATTRIBUTE_129
10
0
20
0
40
0.7
1
 
72
1
73
2
11
0
21
0
50
-180
41
0.75
7
W0$127
0
TEXT
8
LABEL_INFO
10
0
20
0
40
0.56
1
1 0 1 1 0 1
72
1
73
1
11
0
21
0
41
0.75
7
W0$04127
0
TEXT
8
LABEL_ATTRIBUTE
10
0
20
0
40
0.56
1
Ref.Des.
72
1
73
1
11
0
21
0
41
0.75
7
W0$04127
0
TEXT
8
PART_NAME_129
10
0
20
0
40
0.56
1
Q12
72
1
73
2
11
0
21
0
50
-180
41
0.75
7
W0$04127
0
TEXT
8
LABEL_INFO
10
0
20
0
40
0.7
1
1 0 1 1 0 1
72
1
73
1
11
0
21
0
41
0.75
7
W0$127
0
TEXT
8
LABEL_ATTRIBUTE
10
0
20
0
40
0.7
1
PartType
72
1
73
1
11
0
21
0
41
0.75
7
W0$127
0
TEXT
8
PART_TYPE_129
10
0
20
0
40
0.7
1
SOT_323
72
1
73
2
11
0
21
0
50
-180
41
0.75
7
W0$127
0
TEXT
8
PART_INFO
10
0
20
-1
40
0.7
1
000000
71
2
72
1
73
2
11
0
21
-1
50
-180
41
0.75
7
W0$127
0
TEXT
8
PART_PTS
10
0
20
-2
40
0.7
1
1 2 3 
71
2
72
1
73
2
11
0
21
-2
50
-180
41
0.75
7
W0$127
0
ENDBLK
0
BLOCK
2
PART_BOT_363
8
0
10
0
20
0
3
PART_BOT_363
70
64
0
INSERT
2
SYM_BOT_39
8
0
10
0
20
0
0
INSERT
2
PKG_31
8
0
10
0
20
0
41
-1
0
TEXT
8
LABEL_INFO
10
0
20
0
40
0.7
1
1 0 1 1 0 1
72
1
73
1
11
0
21
0
41
0.75
7
W0$127
0
TEXT
8
LABEL_ATTRIBUTE
10
0
20
0
40
0.7
1
Value
72
1
73
1
11
0
21
0
41
0.75
7
W0$127
0
TEXT
8
ATTRIBUTE_129
10
0
20
0
40
0.7
1
 
72
1
73
2
11
0
21
0
41
0.75
7
W0$127
0
TEXT
8
LABEL_INFO
10
0
20
0
40
0.56
1
1 0 1 1 0 1
72
1
73
1
11
0
21
0
41
0.75
7
W0$04127
0
TEXT
8
LABEL_ATTRIBUTE
10
0
20
0
40
0.56
1
Ref.Des.
72
1
73
1
11
0
21
0
41
0.75
7
W0$04127
0
TEXT
8
PART_NAME_129
10
0
20
0
40
0.56
1
Q13
72
1
73
2
11
0
21
0
41
0.75
7
W0$04127
0
TEXT
8
LABEL_INFO
10
0
20
0
40
0.7
1
1 0 1 1 0 1
72
1
73
1
11
0
21
0
41
0.75
7
W0$127
0
TEXT
8
LABEL_ATTRIBUTE
10
0
20
0
40
0.7
1
PartType
72
1
73
1
11
0
21
0
41
0.75
7
W0$127
0
TEXT
8
PART_TYPE_129
10
0
20
0
40
0.7
1
SOT_323
72
1
73
2
11
0
21
0
41
0.75
7
W0$127
0
TEXT
8
PART_INFO
10
0
20
-1
40
0.7
1
000000
71
2
72
1
73
2
11
0
21
-1
41
0.75
7
W0$127
0
TEXT
8
PART_PTS
10
0
20
-2
40
0.7
1
1 2 3 
71
2
72
1
73
2
11
0
21
-2
41
0.75
7
W0$127
0
ENDBLK
0
BLOCK
2
SYM_BOT_4
8
0
10
0
20
0
3
SYM_BOT_4
70
64
0
TEXT
8
SYM_NAME
10
0
20
0
40
1.778
1
C0402
41
0.75
0
TEXT
8
SYM_PART_NAME_01
10
-0.0353333333
20
0.0363333333
40
0.28
1
 
72
1
73
1
11
-0.0353333333
21
0.0363333333
41
0.75
7
W0$04R0
0
TEXT
8
SYM_ATTRIBUTE_01
10
1.3235006667
20
1.1685286667
40
0.889
1
Comment
72
1
73
1
11
1.3235006667
21
1.1685286667
41
0.75
7
W0$127R0
0
INSERT
2
PART_BODY_BOT_2
8
0
10
0
20
0
0
INSERT
2
STK_BOT_6
8
0
10
-0.45
20
0
0
TEXT
8
SYM_TERMINAL
10
0
20
-3.048
40
1.778
1
1
0
INSERT
2
STK_BOT_7
8
0
10
0.45
20
0
0
TEXT
8
SYM_TERMINAL
10
0
20
-6.096
40
1.778
1
2
0
ENDBLK
0
BLOCK
2
PKG_1
8
0
10
0
20
0
3
PKG_1
70
64
0
TEXT
8
PKG_INFO
10
0
20
0
40
1.778
1
*SYM:= 4
0
TEXT
8
PKG_INFO
10
0
20
-3.048
40
1.778
1
*PKG:= 0 C0402 UND
0
TEXT
8
PKG_INFO
10
0
20
-6.096
40
1.778
1
*GATE:=0
0
TEXT
8
PKG_INFO
10
0
20
-9.144
40
1.778
1
*GATEPIN:= 0 9 1 <>
0
TEXT
8
PKG_INFO
10
0
20
-12.192
40
1.778
1
*GATEPIN:= 0 9 2 <>
0
ENDBLK
0
BLOCK
2
SYM_BOT_19
8
0
10
0
20
0
3
SYM_BOT_19
70
64
0
TEXT
8
SYM_NAME
10
0
20
0
40
1.778
1
R0402
41
0.75
0
TEXT
8
SYM_PART_NAME_01
10
-0.598
20
-0.155
40
0.28
1
 
41
0.75
7
W0$04R0
0
TEXT
8
SYM_ATTRIBUTE_01
10
-0.963498
20
0.6666986667
40
0.889
1
Comment
41
0.75
7
W0$127R0
0
INSERT
2
PART_BODY_BOT_17
8
0
10
0
20
0
0
INSERT
2
STK_BOT_7
8
0
10
-0.45
20
0
0
TEXT
8
SYM_TERMINAL
10
0
20
-3.048
40
1.778
1
1
0
INSERT
2
STK_BOT_7
8
0
10
0.45
20
0
0
TEXT
8
SYM_TERMINAL
10
0
20
-6.096
40
1.778
1
2
0
ENDBLK
0
BLOCK
2
PKG_12
8
0
10
0
20
0
3
PKG_12
70
64
0
TEXT
8
PKG_INFO
10
0
20
0
40
1.778
1
*SYM:= 19
0
TEXT
8
PKG_INFO
10
0
20
-3.048
40
1.778
1
*PKG:= 0 R0402 UND
0
TEXT
8
PKG_INFO
10
0
20
-6.096
40
1.778
1
*GATE:=0
0
TEXT
8
PKG_INFO
10
0
20
-9.144
40
1.778
1
*GATEPIN:= 0 9 1 <>
0
TEXT
8
PKG_INFO
10
0
20
-12.192
40
1.778
1
*GATEPIN:= 0 9 2 <>
0
ENDBLK
0
BLOCK
2
SYM_BOT_42
8
0
10
0
20
0
3
SYM_BOT_42
70
64
0
TEXT
8
SYM_NAME
10
0
20
0
40
1.778
1
R0603
41
0.75
0
TEXT
8
SYM_ATTRIBUTE_126
10
-1.5761993333
20
0.8793986667
40
0.889
1
Comment
41
0.75
7
W0$127R0
0
TEXT
8
SYM_PART_NAME_126
10
-1.5761993333
20
2.1493986667
40
0.6223
1
 
41
0.75
7
W0$127R0
0
INSERT
2
PART_BODY_BOT_40
8
0
10
0
20
0
0
INSERT
2
STK_BOT_70
8
0
10
-0.7874
20
0
0
TEXT
8
SYM_TERMINAL
10
0
20
-3.048
40
1.778
1
1
0
INSERT
2
STK_BOT_70
8
0
10
0.7874
20
0
0
TEXT
8
SYM_TERMINAL
10
0
20
-6.096
40
1.778
1
2
0
ENDBLK
0
BLOCK
2
PKG_34
8
0
10
0
20
0
3
PKG_34
70
64
0
TEXT
8
PKG_INFO
10
0
20
0
40
1.778
1
*SYM:= 42
0
TEXT
8
PKG_INFO
10
0
20
-3.048
40
1.778
1
*PKG:= 0 R0603 RES
0
TEXT
8
PKG_INFO
10
0
20
-6.096
40
1.778
1
*GATE:=0
0
TEXT
8
PKG_INFO
10
0
20
-9.144
40
1.778
1
*GATEPIN:= 0 9 1 <>
0
TEXT
8
PKG_INFO
10
0
20
-12.192
40
1.778
1
*GATEPIN:= 0 9 2 <>
0
ENDBLK
0
BLOCK
2
SYM_BOT_5
8
0
10
0
20
0
3
SYM_BOT_5
70
64
0
TEXT
8
SYM_NAME
10
0
20
0
40
1.778
1
C0603
41
0.75
0
TEXT
8
SYM_PART_NAME_01
10
-0.6493333333
20
-0.1346666667
40
0.35
1
 
41
0.75
7
W0$04R0
0
TEXT
8
SYM_ATTRIBUTE_01
10
-1.7398993333
20
0.9051913333
40
0.889
1
Comment
41
0.75
7
W0$127R0
0
INSERT
2
PART_BODY_BOT_3
8
0
10
0
20
0
0
INSERT
2
STK_BOT_8
8
0
10
-0.8
20
0
0
TEXT
8
SYM_TERMINAL
10
0
20
-3.048
40
1.778
1
1
0
INSERT
2
STK_BOT_8
8
0
10
0.8
20
0
0
TEXT
8
SYM_TERMINAL
10
0
20
-6.096
40
1.778
1
2
0
ENDBLK
0
BLOCK
2
PKG_2
8
0
10
0
20
0
3
PKG_2
70
64
0
TEXT
8
PKG_INFO
10
0
20
0
40
1.778
1
*SYM:= 5
0
TEXT
8
PKG_INFO
10
0
20
-3.048
40
1.778
1
*PKG:= 0 C0603 UND
0
TEXT
8
PKG_INFO
10
0
20
-6.096
40
1.778
1
*GATE:=0
0
TEXT
8
PKG_INFO
10
0
20
-9.144
40
1.778
1
*GATEPIN:= 0 9 1 <>
0
TEXT
8
PKG_INFO
10
0
20
-12.192
40
1.778
1
*GATEPIN:= 0 9 2 <>
0
ENDBLK
0
BLOCK
2
SYM_BOT_17
8
0
10
0
20
0
3
SYM_BOT_17
70
64
0
TEXT
8
SYM_NAME
10
0
20
0
40
1.778
1
ESD0402
41
0.75
0
TEXT
8
SYM_PART_NAME_109
10
-1.08585
20
1.9773893333
40
0.889
1
 
41
0.75
7
W0$127R0
0
TEXT
8
SYM_ATTRIBUTE_109
10
-1.08585
20
0.7073893333
40
0.889
1
Comment
41
0.75
7
W0$127R0
0
INSERT
2
PART_BODY_BOT_15
8
0
10
0
20
0
0
INSERT
2
STK_BOT_6
8
0
10
-0.4988
20
0
0
TEXT
8
SYM_TERMINAL
10
0
20
-3.048
40
1.778
1
1
0
INSERT
2
STK_BOT_6
8
0
10
0.4788
20
0
0
TEXT
8
SYM_TERMINAL
10
0
20
-6.096
40
1.778
1
2
0
ENDBLK
0
BLOCK
2
PKG_10
8
0
10
0
20
0
3
PKG_10
70
64
0
TEXT
8
PKG_INFO
10
0
20
0
40
1.778
1
*SYM:= 17
0
TEXT
8
PKG_INFO
10
0
20
-3.048
40
1.778
1
*PKG:= 0 ESD0402 UND
0
ENDBLK
0
BLOCK
2
SYM_BOT_69
8
0
10
0
20
0
3
SYM_BOT_69
70
64
0
TEXT
8
SYM_NAME
10
0
20
0
40
1.778
1
CSP-12
41
0.75
0
TEXT
8
SYM_PART_TYPE_01
10
2.0463333333
20
0.2043333333
40
0.889
1
 
73
2
11
2.0463333333
21
0.2043333333
41
0.75
7
W0$127R0
0
TEXT
8
SYM_PART_NAME_01
10
0.6
20
-0.8
40
0.889
1
 
41
0.75
7
W0$127R0
0
INSERT
2
PART_BODY_BOT_125
8
0
10
0
20
0
0
INSERT
2
STK_BOT_218
8
0
10
0
20
0
0
TEXT
8
SYM_TERMINAL
10
0
20
-3.048
40
1.778
1
A1
0
INSERT
2
STK_BOT_218
8
0
10
0.5
20
0
0
TEXT
8
SYM_TERMINAL
10
0
20
-6.096
40
1.778
1
A2
0
INSERT
2
STK_BOT_218
8
0
10
1
20
0
0
TEXT
8
SYM_TERMINAL
10
0
20
-9.144
40
1.778
1
A3
0
INSERT
2
STK_BOT_218
8
0
10
0
20
-0.5
0
TEXT
8
SYM_TERMINAL
10
0
20
-12.192
40
1.778
1
B1
0
INSERT
2
STK_BOT_218
8
0
10
0.5
20
-0.5
0
TEXT
8
SYM_TERMINAL
10
0
20
-15.24
40
1.778
1
B2
0
INSERT
2
STK_BOT_218
8
0
10
1
20
-0.5
0
TEXT
8
SYM_TERMINAL
10
0
20
-18.288
40
1.778
1
B3
0
INSERT
2
STK_BOT_218
8
0
10
0
20
-1
0
TEXT
8
SYM_TERMINAL
10
0
20
-21.336
40
1.778
1
C1
0
INSERT
2
STK_BOT_218
8
0
10
0.5
20
-1
0
TEXT
8
SYM_TERMINAL
10
0
20
-24.384
40
1.778
1
C2
0
INSERT
2
STK_BOT_218
8
0
10
1
20
-1
0
TEXT
8
SYM_TERMINAL
10
0
20
-27.432
40
1.778
1
C3
0
INSERT
2
STK_BOT_218
8
0
10
0
20
-1.5
0
TEXT
8
SYM_TERMINAL
10
0
20
-30.48
40
1.778
1
D1
0
INSERT
2
STK_BOT_218
8
0
10
0.5
20
-1.5
0
TEXT
8
SYM_TERMINAL
10
0
20
-33.528
40
1.778
1
D2
0
INSERT
2
STK_BOT_218
8
0
10
1
20
-1.5
0
TEXT
8
SYM_TERMINAL
10
0
20
-36.576
40
1.778
1
D3
0
ENDBLK
0
BLOCK
2
PKG_59
8
0
10
0
20
0
3
PKG_59
70
64
0
TEXT
8
PKG_INFO
10
0
20
0
40
1.778
1
*SYM:= 69
0
TEXT
8
PKG_INFO
10
0
20
-3.048
40
1.778
1
*PKG:= 0 CSP-12 UND
0
TEXT
8
PKG_INFO
10
0
20
-6.096
40
1.778
1
*GATE:=0
0
TEXT
8
PKG_INFO
10
0
20
-9.144
40
1.778
1
*GATEPIN:= 0 9 A1 <>
0
TEXT
8
PKG_INFO
10
0
20
-12.192
40
1.778
1
*GATEPIN:= 0 9 A2 <>
0
TEXT
8
PKG_INFO
10
0
20
-15.24
40
1.778
1
*GATEPIN:= 0 9 A3 <>
0
TEXT
8
PKG_INFO
10
0
20
-18.288
40
1.778
1
*GATEPIN:= 0 9 B1 <>
0
TEXT
8
PKG_INFO
10
0
20
-21.336
40
1.778
1
*GATEPIN:= 0 9 B2 <>
0
TEXT
8
PKG_INFO
10
0
20
-24.384
40
1.778
1
*GATEPIN:= 0 9 B3 <>
0
TEXT
8
PKG_INFO
10
0
20
-27.432
40
1.778
1
*GATEPIN:= 0 9 C1 <>
0
TEXT
8
PKG_INFO
10
0
20
-30.48
40
1.778
1
*GATEPIN:= 0 9 C2 <>
0
TEXT
8
PKG_INFO
10
0
20
-33.528
40
1.778
1
*GATEPIN:= 0 9 C3 <>
0
TEXT
8
PKG_INFO
10
0
20
-36.576
40
1.778
1
*GATEPIN:= 0 9 D1 <>
0
TEXT
8
PKG_INFO
10
0
20
-39.624
40
1.778
1
*GATEPIN:= 0 9 D2 <>
0
TEXT
8
PKG_INFO
10
0
20
-42.672
40
1.778
1
*GATEPIN:= 0 9 D3 <>
0
ENDBLK
0
BLOCK
2
SYM_BOT_6
8
0
10
0
20
0
3
SYM_BOT_6
70
64
0
TEXT
8
SYM_NAME
10
0
20
0
40
1.778
1
C0805
41
0.75
0
TEXT
8
SYM_ATTRIBUTE_01
10
-2.0012653333
20
1.1556933333
40
0.889
1
Comment
41
0.75
7
W0$127R0
0
TEXT
8
SYM_PART_NAME_01
10
-0.7113333333
20
-0.077
40
0.35
1
 
41
0.75
7
W0$04R0
0
INSERT
2
PART_BODY_BOT_4
8
0
10
0
20
0
0
INSERT
2
STK_BOT_9
8
0
10
-0.95
20
0
0
TEXT
8
SYM_TERMINAL
10
0
20
-3.048
40
1.778
1
1
0
INSERT
2
STK_BOT_9
8
0
10
0.95
20
0
0
TEXT
8
SYM_TERMINAL
10
0
20
-6.096
40
1.778
1
2
0
ENDBLK
0
BLOCK
2
PKG_3
8
0
10
0
20
0
3
PKG_3
70
64
0
TEXT
8
PKG_INFO
10
0
20
0
40
1.778
1
*SYM:= 6
0
TEXT
8
PKG_INFO
10
0
20
-3.048
40
1.778
1
*PKG:= 0 C0805 UND
0
TEXT
8
PKG_INFO
10
0
20
-6.096
40
1.778
1
*GATE:=0
0
TEXT
8
PKG_INFO
10
0
20
-9.144
40
1.778
1
*GATEPIN:= 0 9 1 <>
0
TEXT
8
PKG_INFO
10
0
20
-12.192
40
1.778
1
*GATEPIN:= 0 9 2 <>
0
ENDBLK
0
BLOCK
2
SYM_BOT_7
8
0
10
0
20
0
3
SYM_BOT_7
70
64
0
TEXT
8
SYM_NAME
10
0
20
0
40
1.778
1
C0201
41
0.75
0
TEXT
8
SYM_PART_NAME_126
10
-3.6542446667
20
1.8864233333
40
0.889
1
 
41
0.75
7
W0$127R0
0
TEXT
8
SYM_ATTRIBUTE_126
10
-3.6542446667
20
0.6164233333
40
0.889
1
Comment
41
0.75
7
W0$127R0
0
INSERT
2
PART_BODY_BOT_5
8
0
10
0
20
0
0
INSERT
2
STK_BOT_10
8
0
10
-0.2751186667
20
0
0
TEXT
8
SYM_TERMINAL
10
0
20
-3.048
40
1.778
1
1
0
INSERT
2
STK_BOT_10
8
0
10
0.2751186667
20
0
0
TEXT
8
SYM_TERMINAL
10
0
20
-6.096
40
1.778
1
2
0
ENDBLK
0
BLOCK
2
PKG_4
8
0
10
0
20
0
3
PKG_4
70
64
0
TEXT
8
PKG_INFO
10
0
20
0
40
1.778
1
*SYM:= 7 8 9 10 11
0
TEXT
8
PKG_INFO
10
0
20
-3.048
40
1.778
1
*PKG:= 0 C0201 UND
0
TEXT
8
PKG_INFO
10
0
20
-6.096
40
1.778
1
*GATE:=0
0
TEXT
8
PKG_INFO
10
0
20
-9.144
40
1.778
1
*GATEPIN:= 0 5 1 <>
0
TEXT
8
PKG_INFO
10
0
20
-12.192
40
1.778
1
*GATEPIN:= 0 5 2 <>
0
ENDBLK
0
BLOCK
2
SYM_BOT_12
8
0
10
0
20
0
3
SYM_BOT_12
70
64
0
TEXT
8
SYM_NAME
10
0
20
0
40
1.778
1
TF-CKT01-009D
41
0.75
0
TEXT
8
SYM_ATTRIBUTE_126
10
-11.3155986667
20
9.6031973333
40
0.889
1
Comment
41
0.75
7
W0$127R0
0
TEXT
8
SYM_PART_NAME_126
10
-11.3155986667
20
10.8731973333
40
0.889
1
 
41
0.75
7
W0$127R0
0
INSERT
2
PART_BODY_BOT_10
8
0
10
0
20
0
0
INSERT
2
STK_BOT_13
8
0
10
-10.5156
20
3.20001
0
TEXT
8
SYM_TERMINAL
10
0
20
-3.048
40
1.778
1
1
0
INSERT
2
STK_BOT_13
8
0
10
-10.5156
20
2.1000126667
0
TEXT
8
SYM_TERMINAL
10
0
20
-6.096
40
1.778
1
2
0
INSERT
2
STK_BOT_13
8
0
10
-10.5156
20
1.0000146667
0
TEXT
8
SYM_TERMINAL
10
0
20
-9.144
40
1.778
1
3
0
INSERT
2
STK_BOT_13
8
0
10
-10.5156
20
-0.1000086667
0
TEXT
8
SYM_TERMINAL
10
0
20
-12.192
40
1.778
1
4
0
INSERT
2
STK_BOT_13
8
0
10
-10.5156
20
-1.1999806667
0
TEXT
8
SYM_TERMINAL
10
0
20
-15.24
40
1.778
1
5
0
INSERT
2
STK_BOT_13
8
0
10
-10.5156
20
-2.300004
0
TEXT
8
SYM_TERMINAL
10
0
20
-18.288
40
1.778
1
6
0
INSERT
2
STK_BOT_13
8
0
10
-10.5156
20
-3.400002
0
TEXT
8
SYM_TERMINAL
10
0
20
-21.336
40
1.778
1
7
0
INSERT
2
STK_BOT_13
8
0
10
-10.5156
20
-4.5
0
TEXT
8
SYM_TERMINAL
10
0
20
-24.384
40
1.778
1
8
0
INSERT
2
STK_BOT_13
8
0
10
-10.5156
20
-5.5999973333
0
TEXT
8
SYM_TERMINAL
10
0
20
-27.432
40
1.778
1
9
0
INSERT
2
STK_BOT_14
8
0
10
-10.0156
20
-6.99999
0
TEXT
8
SYM_TERMINAL
10
0
20
-30.48
40
1.778
1
10
0
INSERT
2
STK_BOT_15
8
0
10
-0.4155953333
20
-6.7999953333
0
TEXT
8
SYM_TERMINAL
10
0
20
-33.528
40
1.778
1
11
0
INSERT
2
STK_BOT_15
8
0
10
-0.4155953333
20
8.6999986667
0
TEXT
8
SYM_TERMINAL
10
0
20
-36.576
40
1.778
1
12
0
INSERT
2
STK_BOT_14
8
0
10
-10.0156013333
20
8.6999986667
0
TEXT
8
SYM_TERMINAL
10
0
20
-39.624
40
1.778
1
13
0
INSERT
2
STK_BOT_16
8
0
10
0
20
4
0
TEXT
8
SYM_TERMINAL
10
0
20
-42.672
40
1.778
1
14
0
INSERT
2
STK_BOT_16
8
0
10
0
20
-4
0
TEXT
8
SYM_TERMINAL
10
0
20
-45.72
40
1.778
1
15
0
ENDBLK
0
BLOCK
2
PKG_5
8
0
10
0
20
0
3
PKG_5
70
64
0
TEXT
8
PKG_INFO
10
0
20
0
40
1.778
1
*SYM:= 12
0
TEXT
8
PKG_INFO
10
0
20
-3.048
40
1.778
1
*PKG:= 0 TF-CKT01-009D UND
0
ENDBLK
0
BLOCK
2
SYM_BOT_16
8
0
10
0
20
0
3
SYM_BOT_16
70
64
0
TEXT
8
SYM_NAME
10
0
20
0
40
1.778
1
E0402N
41
0.75
0
TEXT
8
SYM_PART_NAME_01
10
-0.527812
20
-0.066548
40
0.2667
1
 
41
0.75
7
W0$0381R0
0
TEXT
8
SYM_ATTRIBUTE_01
10
-1.699372
20
1.065566
40
0.889
1
Comment
41
0.75
7
W0$127R0
0
INSERT
2
PART_BODY_BOT_14
8
0
10
0
20
0
0
INSERT
2
STK_BOT_21
8
0
10
-0.635
20
0
0
TEXT
8
SYM_TERMINAL
10
0
20
-3.048
40
1.778
1
1
0
INSERT
2
STK_BOT_21
8
0
10
0.635
20
0
0
TEXT
8
SYM_TERMINAL
10
0
20
-6.096
40
1.778
1
2
0
ENDBLK
0
BLOCK
2
PKG_9
8
0
10
0
20
0
3
PKG_9
70
64
0
TEXT
8
PKG_INFO
10
0
20
0
40
1.778
1
*SYM:= 16
0
TEXT
8
PKG_INFO
10
0
20
-3.048
40
1.778
1
*PKG:= 0 E0402N UND
0
TEXT
8
PKG_INFO
10
0
20
-6.096
40
1.778
1
*GATE:=0
0
TEXT
8
PKG_INFO
10
0
20
-9.144
40
1.778
1
*GATEPIN:= 0 9 1 <>
0
TEXT
8
PKG_INFO
10
0
20
-12.192
40
1.778
1
*GATEPIN:= 0 9 2 <>
0
ENDBLK
0
BLOCK
2
SYM_BOT_22
8
0
10
0
20
0
3
SYM_BOT_22
70
64
0
TEXT
8
SYM_NAME
10
0
20
0
40
1.778
1
SDO-4030
41
0.75
0
TEXT
8
SYM_PART_NAME_01
10
0
20
0
40
0.889
1
 
41
0.75
7
W0$127R0
0
INSERT
2
PART_BODY_BOT_20
8
0
10
0
20
0
0
INSERT
2
STK_BOT_29
8
0
10
0
20
0
0
TEXT
8
SYM_TERMINAL
10
0
20
-3.048
40
1.778
1
1
0
INSERT
2
STK_BOT_29
8
0
10
0
20
1.35
0
TEXT
8
SYM_TERMINAL
10
0
20
-6.096
40
1.778
1
2
0
INSERT
2
STK_BOT_29
8
0
10
-0.85
20
1.35
0
TEXT
8
SYM_TERMINAL
10
0
20
-9.144
40
1.778
1
3
0
INSERT
2
STK_BOT_29
8
0
10
-0.85
20
0
0
TEXT
8
SYM_TERMINAL
10
0
20
-12.192
40
1.778
1
4
0
INSERT
2
STK_BOT_30
8
0
10
-1.6364
20
-1.0522
0
TEXT
8
SYM_TERMINAL
10
0
20
-15.24
40
1.778
1
5
0
ENDBLK
0
BLOCK
2
PKG_15
8
0
10
0
20
0
3
PKG_15
70
64
0
TEXT
8
PKG_INFO
10
0
20
0
40
1.778
1
*SYM:= 22
0
TEXT
8
PKG_INFO
10
0
20
-3.048
40
1.778
1
*PKG:= 0 SDO-4030 UND
0
TEXT
8
PKG_INFO
10
0
20
-6.096
40
1.778
1
*GATE:=0
0
TEXT
8
PKG_INFO
10
0
20
-9.144
40
1.778
1
*GATEPIN:= 0 9 1 <>
0
TEXT
8
PKG_INFO
10
0
20
-12.192
40
1.778
1
*GATEPIN:= 0 9 4 <>
0
TEXT
8
PKG_INFO
10
0
20
-15.24
40
1.778
1
*GATEPIN:= 0 9 2 <>
0
TEXT
8
PKG_INFO
10
0
20
-18.288
40
1.778
1
*GATEPIN:= 0 9 3 <>
0
TEXT
8
PKG_INFO
10
0
20
-21.336
40
1.778
1
*GATEPIN:= 0 9 5 <>
0
ENDBLK
0
BLOCK
2
SYM_BOT_30
8
0
10
0
20
0
3
SYM_BOT_30
70
64
0
TEXT
8
SYM_NAME
10
0
20
0
40
1.778
1
LD-020
41
0.75
0
TEXT
8
SYM_PART_NAME_01
10
-0.75
20
2.225
40
0.889
1
 
41
0.75
7
W0$127R0
0
TEXT
8
SYM_PART_TYPE_01
10
-0.75
20
1.725
40
0.889
1
 
73
2
11
-0.75
21
1.725
41
0.75
7
W0$127R0
0
INSERT
2
PART_BODY_BOT_28
8
0
10
0
20
0
0
INSERT
2
STK_BOT_53
8
0
10
-0.75
20
2.225
0
TEXT
8
SYM_TERMINAL
10
0
20
-3.048
40
1.778
1
1
0
INSERT
2
STK_BOT_53
8
0
10
2.25
20
2.225
0
TEXT
8
SYM_TERMINAL
10
0
20
-6.096
40
1.778
1
2
0
INSERT
2
STK_BOT_53
8
0
10
3.75
20
2.225
0
TEXT
8
SYM_TERMINAL
10
0
20
-9.144
40
1.778
1
3
0
INSERT
2
STK_BOT_54
8
0
10
0
20
0
0
TEXT
8
SYM_TERMINAL
10
0
20
-12.192
40
1.778
1
4
0
INSERT
2
STK_BOT_54
8
0
10
3
20
0
0
TEXT
8
SYM_TERMINAL
10
0
20
-15.24
40
1.778
1
5
0
INSERT
2
STK_BOT_52
8
0
10
-2.175
20
1.125
0
TEXT
8
SYM_TERMINAL
10
0
20
-18.288
40
1.778
1
6
0
INSERT
2
STK_BOT_52
8
0
10
5.175
20
1.125
0
TEXT
8
SYM_TERMINAL
10
0
20
-21.336
40
1.778
1
7
0
INSERT
2
STK_BOT_52
8
0
10
5.175
20
-1.125
0
TEXT
8
SYM_TERMINAL
10
0
20
-24.384
40
1.778
1
8
0
INSERT
2
STK_BOT_52
8
0
10
-2.175
20
-1.125
0
TEXT
8
SYM_TERMINAL
10
0
20
-27.432
40
1.778
1
9
0
ENDBLK
0
BLOCK
2
PKG_22
8
0
10
0
20
0
3
PKG_22
70
64
0
TEXT
8
PKG_INFO
10
0
20
0
40
1.778
1
*SYM:= 30
0
TEXT
8
PKG_INFO
10
0
20
-3.048
40
1.778
1
*PKG:= 0 LD-020 UND
0
TEXT
8
PKG_INFO
10
0
20
-6.096
40
1.778
1
*GATE:=0
0
TEXT
8
PKG_INFO
10
0
20
-9.144
40
1.778
1
*GATEPIN:= 0 9 1 <>
0
TEXT
8
PKG_INFO
10
0
20
-12.192
40
1.778
1
*GATEPIN:= 0 9 2 <>
0
TEXT
8
PKG_INFO
10
0
20
-15.24
40
1.778
1
*GATEPIN:= 0 9 3 <>
0
TEXT
8
PKG_INFO
10
0
20
-18.288
40
1.778
1
*GATEPIN:= 0 9 4 <>
0
TEXT
8
PKG_INFO
10
0
20
-21.336
40
1.778
1
*GATEPIN:= 0 9 5 <>
0
TEXT
8
PKG_INFO
10
0
20
-24.384
40
1.778
1
*GATEPIN:= 0 9 6 <>
0
TEXT
8
PKG_INFO
10
0
20
-27.432
40
1.778
1
*GATEPIN:= 0 9 7 <>
0
TEXT
8
PKG_INFO
10
0
20
-30.48
40
1.778
1
*GATEPIN:= 0 9 8 <>
0
TEXT
8
PKG_INFO
10
0
20
-33.528
40
1.778
1
*GATEPIN:= 0 9 9 <>
0
ENDBLK
0
BLOCK
2
SYM_BOT_33
8
0
10
0
20
0
3
SYM_BOT_33
70
64
0
TEXT
8
SYM_NAME
10
0
20
0
40
1.778
1
IND-6X6
41
0.75
0
TEXT
8
SYM_PART_TYPE_01
10
14.2106666667
20
0.1976666667
40
0.889
1
 
73
2
11
14.2106666667
21
0.1976666667
41
0.75
7
W0$127R0
0
TEXT
8
SYM_PART_NAME_01
10
14.2106666667
20
0.1976666667
40
0.889
1
 
41
0.75
7
W0$127R0
0
INSERT
2
PART_BODY_BOT_31
8
0
10
0
20
0
0
INSERT
2
STK_BOT_58
8
0
10
-2.2
20
0
0
TEXT
8
SYM_TERMINAL
10
0
20
-3.048
40
1.778
1
1
0
INSERT
2
STK_BOT_58
8
0
10
2.2
20
0
0
TEXT
8
SYM_TERMINAL
10
0
20
-6.096
40
1.778
1
2
0
ENDBLK
0
BLOCK
2
PKG_25
8
0
10
0
20
0
3
PKG_25
70
64
0
TEXT
8
PKG_INFO
10
0
20
0
40
1.778
1
*SYM:= 33
0
TEXT
8
PKG_INFO
10
0
20
-3.048
40
1.778
1
*PKG:= 0 IND-6X6 UND
0
TEXT
8
PKG_INFO
10
0
20
-6.096
40
1.778
1
*GATE:=0
0
TEXT
8
PKG_INFO
10
0
20
-9.144
40
1.778
1
*GATEPIN:= 0 9 1 <>
0
TEXT
8
PKG_INFO
10
0
20
-12.192
40
1.778
1
*GATEPIN:= 0 9 2 <>
0
ENDBLK
0
BLOCK
2
SYM_BOT_37
8
0
10
0
20
0
3
SYM_BOT_37
70
64
0
TEXT
8
SYM_NAME
10
0
20
0
40
1.778
1
SOT_23
41
0.75
0
TEXT
8
SYM_ATTRIBUTE_126
10
-4.5151966667
20
1.853272
40
0.889
1
Comment
41
0.75
7
W0$127R0
0
TEXT
8
SYM_PART_NAME_126
10
-4.5151966667
20
3.123272
40
0.889
1
 
41
0.75
7
W0$127R0
0
INSERT
2
PART_BODY_BOT_35
8
0
10
0
20
0
0
INSERT
2
STK_BOT_63
8
0
10
0.9499593333
20
1.1000733333
0
TEXT
8
SYM_TERMINAL
10
0
20
-3.048
40
1.778
1
1
0
INSERT
2
STK_BOT_63
8
0
10
-0.94996
20
1.1000733333
0
TEXT
8
SYM_TERMINAL
10
0
20
-6.096
40
1.778
1
2
0
INSERT
2
STK_BOT_63
8
0
10
0
20
-1.100074
0
TEXT
8
SYM_TERMINAL
10
0
20
-9.144
40
1.778
1
3
0
ENDBLK
0
BLOCK
2
PKG_29
8
0
10
0
20
0
3
PKG_29
70
64
0
TEXT
8
PKG_INFO
10
0
20
0
40
1.778
1
*SYM:= 37
0
TEXT
8
PKG_INFO
10
0
20
-3.048
40
1.778
1
*PKG:= 0 SOT_23 UND
0
TEXT
8
PKG_INFO
10
0
20
-6.096
40
1.778
1
*GATE:=0
0
TEXT
8
PKG_INFO
10
0
20
-9.144
40
1.778
1
*GATEPIN:= 0 9 1 <>
0
TEXT
8
PKG_INFO
10
0
20
-12.192
40
1.778
1
*GATEPIN:= 0 9 2 <>
0
TEXT
8
PKG_INFO
10
0
20
-15.24
40
1.778
1
*GATEPIN:= 0 9 3 <>
0
ENDBLK
0
BLOCK
2
SYM_BOT_38
8
0
10
0
20
0
3
SYM_BOT_38
70
64
0
TEXT
8
SYM_NAME
10
0
20
0
40
1.778
1
SOT23
41
0.75
0
TEXT
8
SYM_PART_NAME_01
10
-1.57452
20
3.1542986667
40
0.889
1
 
41
0.75
7
W0$127R0
0
TEXT
8
SYM_ATTRIBUTE_01
10
-1.57452
20
1.8842986667
40
0.889
1
Comment
41
0.75
7
W0$127R0
0
INSERT
2
PART_BODY_BOT_36
8
0
10
0
20
0
0
INSERT
2
STK_BOT_64
8
0
10
-0.9652
20
-1.1811
0
TEXT
8
SYM_TERMINAL
10
0
20
-3.048
40
1.778
1
1
0
INSERT
2
STK_BOT_64
8
0
10
0.9652
20
-1.1811
0
TEXT
8
SYM_TERMINAL
10
0
20
-6.096
40
1.778
1
2
0
INSERT
2
STK_BOT_65
8
0
10
0
20
1.081024
0
TEXT
8
SYM_TERMINAL
10
0
20
-9.144
40
1.778
1
3
0
ENDBLK
0
BLOCK
2
PKG_30
8
0
10
0
20
0
3
PKG_30
70
64
0
TEXT
8
PKG_INFO
10
0
20
0
40
1.778
1
*SYM:= 38
0
TEXT
8
PKG_INFO
10
0
20
-3.048
40
1.778
1
*PKG:= 0 SOT23 UND
0
TEXT
8
PKG_INFO
10
0
20
-6.096
40
1.778
1
*GATE:=0
0
TEXT
8
PKG_INFO
10
0
20
-9.144
40
1.778
1
*GATEPIN:= 0 5 1 <>
0
TEXT
8
PKG_INFO
10
0
20
-12.192
40
1.778
1
*GATEPIN:= 0 5 2 <>
0
TEXT
8
PKG_INFO
10
0
20
-15.24
40
1.778
1
*GATEPIN:= 0 5 3 <>
0
ENDBLK
0
BLOCK
2
SYM_BOT_46
8
0
10
0
20
0
3
SYM_BOT_46
70
64
0
TEXT
8
SYM_NAME
10
0
20
0
40
1.778
1
SOT_23_5
41
0.75
0
INSERT
2
PART_BODY_BOT_44
8
0
10
0
20
0
0
INSERT
2
STK_BOT_80
8
0
10
0
20
0
0
TEXT
8
SYM_TERMINAL
10
0
20
-3.048
40
1.778
1
1
0
INSERT
2
STK_BOT_79
8
0
10
0
20
-0.999998
0
TEXT
8
SYM_TERMINAL
10
0
20
-6.096
40
1.778
1
2
0
INSERT
2
STK_BOT_79
8
0
10
0
20
-1.999996
0
TEXT
8
SYM_TERMINAL
10
0
20
-9.144
40
1.778
1
3
0
INSERT
2
STK_BOT_79
8
0
10
2.800096
20
-1.999996
0
TEXT
8
SYM_TERMINAL
10
0
20
-12.192
40
1.778
1
4
0
INSERT
2
STK_BOT_79
8
0
10
2.800096
20
0
0
TEXT
8
SYM_TERMINAL
10
0
20
-15.24
40
1.778
1
5
0
ENDBLK
0
BLOCK
2
PKG_38
8
0
10
0
20
0
3
PKG_38
70
64
0
TEXT
8
PKG_INFO
10
0
20
0
40
1.778
1
*SYM:= 46
0
TEXT
8
PKG_INFO
10
0
20
-3.048
40
1.778
1
*PKG:= 0 SOT_23_5 UND
0
TEXT
8
PKG_INFO
10
0
20
-6.096
40
1.778
1
*GATE:=0
0
TEXT
8
PKG_INFO
10
0
20
-9.144
40
1.778
1
*GATEPIN:= 0 9 1 <>
0
TEXT
8
PKG_INFO
10
0
20
-12.192
40
1.778
1
*GATEPIN:= 0 9 2 <>
0
TEXT
8
PKG_INFO
10
0
20
-15.24
40
1.778
1
*GATEPIN:= 0 9 3 <>
0
TEXT
8
PKG_INFO
10
0
20
-18.288
40
1.778
1
*GATEPIN:= 0 9 4 <>
0
TEXT
8
PKG_INFO
10
0
20
-21.336
40
1.778
1
*GATEPIN:= 0 9 5 <>
0
ENDBLK
0
BLOCK
2
SYM_BOT_47
8
0
10
0
20
0
3
SYM_BOT_47
70
64
0
TEXT
8
SYM_NAME
10
0
20
0
40
1.778
1
QFN32P4X4
41
0.75
0
TEXT
8
SYM_PART_TYPE_01
10
6.35
20
1.9558
40
0.889
1
 
73
2
11
6.35
21
1.9558
41
0.75
7
W0$254R0
0
TEXT
8
SYM_PART_NAME_01
10
6.35
20
1.9558
40
0.889
1
 
41
0.75
7
W0$254R0
0
INSERT
2
PART_BODY_BOT_45
8
0
10
0
20
0
0
INSERT
2
STK_BOT_81
8
0
10
-2.025
20
1.4
0
TEXT
8
SYM_TERMINAL
10
0
20
-3.048
40
1.778
1
1
0
INSERT
2
STK_BOT_81
8
0
10
-2.025
20
1
0
TEXT
8
SYM_TERMINAL
10
0
20
-6.096
40
1.778
1
2
0
INSERT
2
STK_BOT_81
8
0
10
-2.025
20
0.6
0
TEXT
8
SYM_TERMINAL
10
0
20
-9.144
40
1.778
1
3
0
INSERT
2
STK_BOT_81
8
0
10
-2.025
20
0.2
0
TEXT
8
SYM_TERMINAL
10
0
20
-12.192
40
1.778
1
4
0
INSERT
2
STK_BOT_81
8
0
10
-2.025
20
-0.2
0
TEXT
8
SYM_TERMINAL
10
0
20
-15.24
40
1.778
1
5
0
INSERT
2
STK_BOT_81
8
0
10
-2.025
20
-0.6
0
TEXT
8
SYM_TERMINAL
10
0
20
-18.288
40
1.778
1
6
0
INSERT
2
STK_BOT_81
8
0
10
-2.025
20
-1
0
TEXT
8
SYM_TERMINAL
10
0
20
-21.336
40
1.778
1
7
0
INSERT
2
STK_BOT_81
8
0
10
-2.025
20
-1.4
0
TEXT
8
SYM_TERMINAL
10
0
20
-24.384
40
1.778
1
8
0
INSERT
2
STK_BOT_82
8
0
10
-1.4
20
-1.95
0
TEXT
8
SYM_TERMINAL
10
0
20
-27.432
40
1.778
1
9
0
INSERT
2
STK_BOT_82
8
0
10
-1
20
-1.95
0
TEXT
8
SYM_TERMINAL
10
0
20
-30.48
40
1.778
1
10
0
INSERT
2
STK_BOT_82
8
0
10
-0.6
20
-1.95
0
TEXT
8
SYM_TERMINAL
10
0
20
-33.528
40
1.778
1
11
0
INSERT
2
STK_BOT_82
8
0
10
-0.2
20
-1.95
0
TEXT
8
SYM_TERMINAL
10
0
20
-36.576
40
1.778
1
12
0
INSERT
2
STK_BOT_82
8
0
10
0.2
20
-1.95
0
TEXT
8
SYM_TERMINAL
10
0
20
-39.624
40
1.778
1
13
0
INSERT
2
STK_BOT_82
8
0
10
0.6
20
-1.95
0
TEXT
8
SYM_TERMINAL
10
0
20
-42.672
40
1.778
1
14
0
INSERT
2
STK_BOT_82
8
0
10
1
20
-1.95
0
TEXT
8
SYM_TERMINAL
10
0
20
-45.72
40
1.778
1
15
0
INSERT
2
STK_BOT_82
8
0
10
1.4
20
-1.95
0
TEXT
8
SYM_TERMINAL
10
0
20
-48.768
40
1.778
1
16
0
INSERT
2
STK_BOT_81
8
0
10
2.025
20
-1.4
0
TEXT
8
SYM_TERMINAL
10
0
20
-51.816
40
1.778
1
17
0
INSERT
2
STK_BOT_81
8
0
10
2.025
20
-1
0
TEXT
8
SYM_TERMINAL
10
0
20
-54.864
40
1.778
1
18
0
INSERT
2
STK_BOT_81
8
0
10
2.025
20
-0.6
0
TEXT
8
SYM_TERMINAL
10
0
20
-57.912
40
1.778
1
19
0
INSERT
2
STK_BOT_81
8
0
10
2.025
20
-0.2
0
TEXT
8
SYM_TERMINAL
10
0
20
-60.96
40
1.778
1
20
0
INSERT
2
STK_BOT_81
8
0
10
2.025
20
0.2
0
TEXT
8
SYM_TERMINAL
10
0
20
-64.008
40
1.778
1
21
0
INSERT
2
STK_BOT_81
8
0
10
2.025
20
0.6
0
TEXT
8
SYM_TERMINAL
10
0
20
-67.056
40
1.778
1
22
0
INSERT
2
STK_BOT_81
8
0
10
2.025
20
1
0
TEXT
8
SYM_TERMINAL
10
0
20
-70.104
40
1.778
1
23
0
INSERT
2
STK_BOT_81
8
0
10
2.025
20
1.4
0
TEXT
8
SYM_TERMINAL
10
0
20
-73.152
40
1.778
1
24
0
INSERT
2
STK_BOT_83
8
0
10
1.4
20
1.95
0
TEXT
8
SYM_TERMINAL
10
0
20
-76.2
40
1.778
1
25
0
INSERT
2
STK_BOT_83
8
0
10
1
20
1.95
0
TEXT
8
SYM_TERMINAL
10
0
20
-79.248
40
1.778
1
26
0
INSERT
2
STK_BOT_83
8
0
10
0.6
20
1.95
0
TEXT
8
SYM_TERMINAL
10
0
20
-82.296
40
1.778
1
27
0
INSERT
2
STK_BOT_83
8
0
10
0.2
20
1.95
0
TEXT
8
SYM_TERMINAL
10
0
20
-85.344
40
1.778
1
28
0
INSERT
2
STK_BOT_83
8
0
10
-0.2
20
1.95
0
TEXT
8
SYM_TERMINAL
10
0
20
-88.392
40
1.778
1
29
0
INSERT
2
STK_BOT_83
8
0
10
-0.6
20
1.95
0
TEXT
8
SYM_TERMINAL
10
0
20
-91.44
40
1.778
1
30
0
INSERT
2
STK_BOT_83
8
0
10
-1
20
1.95
0
TEXT
8
SYM_TERMINAL
10
0
20
-94.488
40
1.778
1
31
0
INSERT
2
STK_BOT_83
8
0
10
-1.4
20
1.95
0
TEXT
8
SYM_TERMINAL
10
0
20
-97.536
40
1.778
1
32
0
INSERT
2
STK_BOT_84
8
0
10
0
20
0
0
TEXT
8
SYM_TERMINAL
10
0
20
-100.584
40
1.778
1
33
0
ENDBLK
0
BLOCK
2
PKG_39
8
0
10
0
20
0
3
PKG_39
70
64
0
TEXT
8
PKG_INFO
10
0
20
0
40
1.778
1
*SYM:= 47
0
TEXT
8
PKG_INFO
10
0
20
-3.048
40
1.778
1
*PKG:= 0 QFN32P4X4 UND
0
ENDBLK
0
BLOCK
2
SYM_BOT_48
8
0
10
0
20
0
3
SYM_BOT_48
70
64
0
TEXT
8
SYM_NAME
10
0
20
0
40
1.778
1
M2_NGFF_KEY_M
41
0.75
0
TEXT
8
SYM_PART_NAME_126
10
-11.0134673333
20
7.5500353333
40
0.889
1
 
41
0.75
7
W0$127R0
0
TEXT
8
SYM_ATTRIBUTE_126
10
-11.0134673333
20
6.2800353333
40
0.889
1
Comment
41
0.75
7
W0$127R0
0
INSERT
2
PART_BODY_BOT_46
8
0
10
0
20
0
0
INSERT
2
STK_BOT_86
8
0
10
-9.99998
20
-1.47498
0
TEXT
8
SYM_TERMINAL
10
0
20
-3.048
40
1.778
1
78
0
INSERT
2
STK_BOT_87
8
0
10
9.99998
20
-1.47498
0
TEXT
8
SYM_TERMINAL
10
0
20
-6.096
40
1.778
1
79
0
INSERT
2
STK_BOT_88
8
0
10
-10.349992
20
3.024886
0
TEXT
8
SYM_TERMINAL
10
0
20
-9.144
40
1.778
1
77
0
INSERT
2
STK_BOT_88
8
0
10
10.34999
20
3.02489
0
TEXT
8
SYM_TERMINAL
10
0
20
-12.192
40
1.778
1
76
0
INSERT
2
STK_BOT_85
8
0
10
-9.2499686667
20
3.724992
0
TEXT
8
SYM_TERMINAL
10
0
20
-15.24
40
1.778
1
1
0
INSERT
2
STK_BOT_85
8
0
10
-8.9999946667
20
-3.725028
0
TEXT
8
SYM_TERMINAL
10
0
20
-18.288
40
1.778
1
2
0
INSERT
2
STK_BOT_85
8
0
10
-8.749966
20
3.724974
0
TEXT
8
SYM_TERMINAL
10
0
20
-21.336
40
1.778
1
3
0
INSERT
2
STK_BOT_85
8
0
10
-8.499972
20
-3.7250293333
0
TEXT
8
SYM_TERMINAL
10
0
20
-24.384
40
1.778
1
4
0
INSERT
2
STK_BOT_85
8
0
10
-8.2499813333
20
3.724974
0
TEXT
8
SYM_TERMINAL
10
0
20
-27.432
40
1.778
1
5
0
INSERT
2
STK_BOT_85
8
0
10
-7.9999886667
20
-3.725028
0
TEXT
8
SYM_TERMINAL
10
0
20
-30.48
40
1.778
1
6
0
INSERT
2
STK_BOT_85
8
0
10
-7.7499606667
20
3.724974
0
TEXT
8
SYM_TERMINAL
10
0
20
-33.528
40
1.778
1
7
0
INSERT
2
STK_BOT_85
8
0
10
-7.499988
20
-3.725008
0
TEXT
8
SYM_TERMINAL
10
0
20
-36.576
40
1.778
1
8
0
INSERT
2
STK_BOT_85
8
0
10
-7.249976
20
3.724974
0
TEXT
8
SYM_TERMINAL
10
0
20
-39.624
40
1.778
1
9
0
INSERT
2
STK_BOT_85
8
0
10
-6.9999833333
20
-3.725028
0
TEXT
8
SYM_TERMINAL
10
0
20
-42.672
40
1.778
1
10
0
INSERT
2
STK_BOT_85
8
0
10
-6.7499913333
20
3.724974
0
TEXT
8
SYM_TERMINAL
10
0
20
-45.72
40
1.778
1
11
0
INSERT
2
STK_BOT_85
8
0
10
-4.49997
20
-3.72501
0
TEXT
8
SYM_TERMINAL
10
0
20
-48.768
40
1.778
1
20
0
INSERT
2
STK_BOT_85
8
0
10
-4.25
20
3.72497
0
TEXT
8
SYM_TERMINAL
10
0
20
-51.816
40
1.778
1
21
0
INSERT
2
STK_BOT_85
8
0
10
-3.75
20
3.72497
0
TEXT
8
SYM_TERMINAL
10
0
20
-54.864
40
1.778
1
23
0
INSERT
2
STK_BOT_85
8
0
10
-3.25
20
3.72497
0
TEXT
8
SYM_TERMINAL
10
0
20
-57.912
40
1.778
1
25
0
INSERT
2
STK_BOT_85
8
0
10
-2.75
20
3.72497
0
TEXT
8
SYM_TERMINAL
10
0
20
-60.96
40
1.778
1
27
0
INSERT
2
STK_BOT_85
8
0
10
-2.25
20
3.72497
0
TEXT
8
SYM_TERMINAL
10
0
20
-64.008
40
1.778
1
29
0
INSERT
2
STK_BOT_85
8
0
10
-1.75
20
3.72497
0
TEXT
8
SYM_TERMINAL
10
0
20
-67.056
40
1.778
1
31
0
INSERT
2
STK_BOT_85
8
0
10
-1.25
20
3.72497
0
TEXT
8
SYM_TERMINAL
10
0
20
-70.104
40
1.778
1
33
0
INSERT
2
STK_BOT_85
8
0
10
-0.75
20
3.72497
0
TEXT
8
SYM_TERMINAL
10
0
20
-73.152
40
1.778
1
35
0
INSERT
2
STK_BOT_85
8
0
10
-0.25
20
3.72497
0
TEXT
8
SYM_TERMINAL
10
0
20
-76.2
40
1.778
1
37
0
INSERT
2
STK_BOT_85
8
0
10
0.25
20
3.72497
0
TEXT
8
SYM_TERMINAL
10
0
20
-79.248
40
1.778
1
39
0
INSERT
2
STK_BOT_85
8
0
10
0.75
20
3.72497
0
TEXT
8
SYM_TERMINAL
10
0
20
-82.296
40
1.778
1
41
0
INSERT
2
STK_BOT_85
8
0
10
1.25
20
3.72497
0
TEXT
8
SYM_TERMINAL
10
0
20
-85.344
40
1.778
1
43
0
INSERT
2
STK_BOT_85
8
0
10
1.75
20
3.72497
0
TEXT
8
SYM_TERMINAL
10
0
20
-88.392
40
1.778
1
45
0
INSERT
2
STK_BOT_85
8
0
10
2.25
20
3.72497
0
TEXT
8
SYM_TERMINAL
10
0
20
-91.44
40
1.778
1
47
0
INSERT
2
STK_BOT_85
8
0
10
2.75
20
3.72497
0
TEXT
8
SYM_TERMINAL
10
0
20
-94.488
40
1.778
1
49
0
INSERT
2
STK_BOT_85
8
0
10
3.25
20
3.72497
0
TEXT
8
SYM_TERMINAL
10
0
20
-97.536
40
1.778
1
51
0
INSERT
2
STK_BOT_85
8
0
10
3.75
20
3.72497
0
TEXT
8
SYM_TERMINAL
10
0
20
-100.584
40
1.778
1
53
0
INSERT
2
STK_BOT_85
8
0
10
4.25
20
3.72497
0
TEXT
8
SYM_TERMINAL
10
0
20
-103.632
40
1.778
1
55
0
INSERT
2
STK_BOT_85
8
0
10
4.75
20
3.72497
0
TEXT
8
SYM_TERMINAL
10
0
20
-106.68
40
1.778
1
57
0
INSERT
2
STK_BOT_85
8
0
10
7.25
20
3.75
0
TEXT
8
SYM_TERMINAL
10
0
20
-109.728
40
1.778
1
67
0
INSERT
2
STK_BOT_85
8
0
10
7.75
20
3.72497
0
TEXT
8
SYM_TERMINAL
10
0
20
-112.776
40
1.778
1
69
0
INSERT
2
STK_BOT_85
8
0
10
8.25
20
3.72497
0
TEXT
8
SYM_TERMINAL
10
0
20
-115.824
40
1.778
1
71
0
INSERT
2
STK_BOT_85
8
0
10
8.75
20
3.72497
0
TEXT
8
SYM_TERMINAL
10
0
20
-118.872
40
1.778
1
73
0
INSERT
2
STK_BOT_85
8
0
10
9.25
20
3.72497
0
TEXT
8
SYM_TERMINAL
10
0
20
-121.92
40
1.778
1
75
0
INSERT
2
STK_BOT_85
8
0
10
-3.99997
20
-3.72501
0
TEXT
8
SYM_TERMINAL
10
0
20
-124.968
40
1.778
1
22
0
INSERT
2
STK_BOT_85
8
0
10
-3.49997
20
-3.72501
0
TEXT
8
SYM_TERMINAL
10
0
20
-128.016
40
1.778
1
24
0
INSERT
2
STK_BOT_85
8
0
10
-2.99997
20
-3.72501
0
TEXT
8
SYM_TERMINAL
10
0
20
-131.064
40
1.778
1
26
0
INSERT
2
STK_BOT_85
8
0
10
-2.49997
20
-3.72501
0
TEXT
8
SYM_TERMINAL
10
0
20
-134.112
40
1.778
1
28
0
INSERT
2
STK_BOT_85
8
0
10
-1.99997
20
-3.72501
0
TEXT
8
SYM_TERMINAL
10
0
20
-137.16
40
1.778
1
30
0
INSERT
2
STK_BOT_85
8
0
10
-1.49997
20
-3.72501
0
TEXT
8
SYM_TERMINAL
10
0
20
-140.208
40
1.778
1
32
0
INSERT
2
STK_BOT_85
8
0
10
-0.99997
20
-3.72501
0
TEXT
8
SYM_TERMINAL
10
0
20
-143.256
40
1.778
1
34
0
INSERT
2
STK_BOT_85
8
0
10
-0.49997
20
-3.72501
0
TEXT
8
SYM_TERMINAL
10
0
20
-146.304
40
1.778
1
36
0
INSERT
2
STK_BOT_85
8
0
10
0.00003
20
-3.72501
0
TEXT
8
SYM_TERMINAL
10
0
20
-149.352
40
1.778
1
38
0
INSERT
2
STK_BOT_85
8
0
10
0.50003
20
-3.72501
0
TEXT
8
SYM_TERMINAL
10
0
20
-152.4
40
1.778
1
40
0
INSERT
2
STK_BOT_85
8
0
10
1.00003
20
-3.72501
0
TEXT
8
SYM_TERMINAL
10
0
20
-155.448
40
1.778
1
42
0
INSERT
2
STK_BOT_85
8
0
10
1.50003
20
-3.72501
0
TEXT
8
SYM_TERMINAL
10
0
20
-158.496
40
1.778
1
44
0
INSERT
2
STK_BOT_85
8
0
10
2.00003
20
-3.72501
0
TEXT
8
SYM_TERMINAL
10
0
20
-161.544
40
1.778
1
46
0
INSERT
2
STK_BOT_85
8
0
10
2.50003
20
-3.72501
0
TEXT
8
SYM_TERMINAL
10
0
20
-164.592
40
1.778
1
48
0
INSERT
2
STK_BOT_85
8
0
10
3.00003
20
-3.72501
0
TEXT
8
SYM_TERMINAL
10
0
20
-167.64
40
1.778
1
50
0
INSERT
2
STK_BOT_85
8
0
10
3.50003
20
-3.72501
0
TEXT
8
SYM_TERMINAL
10
0
20
-170.688
40
1.778
1
52
0
INSERT
2
STK_BOT_85
8
0
10
4.00003
20
-3.72501
0
TEXT
8
SYM_TERMINAL
10
0
20
-173.736
40
1.778
1
54
0
INSERT
2
STK_BOT_85
8
0
10
4.50003
20
-3.72501
0
TEXT
8
SYM_TERMINAL
10
0
20
-176.784
40
1.778
1
56
0
INSERT
2
STK_BOT_85
8
0
10
5.00003
20
-3.72501
0
TEXT
8
SYM_TERMINAL
10
0
20
-179.832
40
1.778
1
58
0
INSERT
2
STK_BOT_85
8
0
10
7.50003
20
-3.72501
0
TEXT
8
SYM_TERMINAL
10
0
20
-182.88
40
1.778
1
68
0
INSERT
2
STK_BOT_85
8
0
10
8.00003
20
-3.72501
0
TEXT
8
SYM_TERMINAL
10
0
20
-185.928
40
1.778
1
70
0
INSERT
2
STK_BOT_85
8
0
10
8.50003
20
-3.72501
0
TEXT
8
SYM_TERMINAL
10
0
20
-188.976
40
1.778
1
72
0
INSERT
2
STK_BOT_85
8
0
10
9.00003
20
-3.72501
0
TEXT
8
SYM_TERMINAL
10
0
20
-192.024
40
1.778
1
74
0
INSERT
2
STK_BOT_85
8
0
10
-6.25
20
3.72497
0
TEXT
8
SYM_TERMINAL
10
0
20
-195.072
40
1.778
1
13
0
INSERT
2
STK_BOT_85
8
0
10
-5.75
20
3.72497
0
TEXT
8
SYM_TERMINAL
10
0
20
-198.12
40
1.778
1
15
0
INSERT
2
STK_BOT_85
8
0
10
-5.25
20
3.72497
0
TEXT
8
SYM_TERMINAL
10
0
20
-201.168
40
1.778
1
17
0
INSERT
2
STK_BOT_85
8
0
10
-4.75
20
3.72497
0
TEXT
8
SYM_TERMINAL
10
0
20
-204.216
40
1.778
1
19
0
INSERT
2
STK_BOT_85
8
0
10
-6.49997
20
-3.72501
0
TEXT
8
SYM_TERMINAL
10
0
20
-207.264
40
1.778
1
12
0
INSERT
2
STK_BOT_85
8
0
10
-5.99997
20
-3.72501
0
TEXT
8
SYM_TERMINAL
10
0
20
-210.312
40
1.778
1
14
0
INSERT
2
STK_BOT_85
8
0
10
-5.49997
20
-3.72501
0
TEXT
8
SYM_TERMINAL
10
0
20
-213.36
40
1.778
1
16
0
INSERT
2
STK_BOT_85
8
0
10
-4.99997
20
-3.72501
0
TEXT
8
SYM_TERMINAL
10
0
20
-216.408
40
1.778
1
18
0
ENDBLK
0
BLOCK
2
PKG_40
8
0
10
0
20
0
3
PKG_40
70
64
0
TEXT
8
PKG_INFO
10
0
20
0
40
1.778
1
*SYM:= 48
0
TEXT
8
PKG_INFO
10
0
20
-3.048
40
1.778
1
*PKG:= 0 M2_NGFF_KEY_M UND
0
ENDBLK
0
BLOCK
2
SYM_BOT_52
8
0
10
0
20
0
3
SYM_BOT_52
70
64
0
TEXT
8
SYM_NAME
10
0
20
0
40
1.778
1
SOP8-50-150
41
0.75
0
TEXT
8
SYM_ATTRIBUTE_126
10
-2.82575
20
4.7672626667
40
0.889
1
Comment
41
0.75
7
W0$127R0
0
TEXT
8
SYM_PART_NAME_126
10
-2.82575
20
6.0372626667
40
0.889
1
 
41
0.75
7
W0$127R0
0
INSERT
2
PART_BODY_BOT_50
8
0
10
0
20
0
0
INSERT
2
STK_BOT_95
8
0
10
-1.905
20
-2.667
0
TEXT
8
SYM_TERMINAL
10
0
20
-3.048
40
1.778
1
1
0
INSERT
2
STK_BOT_95
8
0
10
-0.635
20
-2.667
0
TEXT
8
SYM_TERMINAL
10
0
20
-6.096
40
1.778
1
2
0
INSERT
2
STK_BOT_95
8
0
10
0.635
20
-2.667
0
TEXT
8
SYM_TERMINAL
10
0
20
-9.144
40
1.778
1
3
0
INSERT
2
STK_BOT_95
8
0
10
1.905
20
-2.667
0
TEXT
8
SYM_TERMINAL
10
0
20
-12.192
40
1.778
1
4
0
INSERT
2
STK_BOT_95
8
0
10
1.905
20
2.667
0
TEXT
8
SYM_TERMINAL
10
0
20
-15.24
40
1.778
1
5
0
INSERT
2
STK_BOT_95
8
0
10
0.635
20
2.667
0
TEXT
8
SYM_TERMINAL
10
0
20
-18.288
40
1.778
1
6
0
INSERT
2
STK_BOT_95
8
0
10
-0.635
20
2.667
0
TEXT
8
SYM_TERMINAL
10
0
20
-21.336
40
1.778
1
7
0
INSERT
2
STK_BOT_95
8
0
10
-1.905
20
2.667
0
TEXT
8
SYM_TERMINAL
10
0
20
-24.384
40
1.778
1
8
0
ENDBLK
0
BLOCK
2
PKG_44
8
0
10
0
20
0
3
PKG_44
70
64
0
TEXT
8
PKG_INFO
10
0
20
0
40
1.778
1
*SYM:= 52
0
TEXT
8
PKG_INFO
10
0
20
-3.048
40
1.778
1
*PKG:= 0 SOP8-50-150 UND
0
TEXT
8
PKG_INFO
10
0
20
-6.096
40
1.778
1
*GATE:=0
0
TEXT
8
PKG_INFO
10
0
20
-9.144
40
1.778
1
*GATEPIN:= 0 5 1 <>
0
TEXT
8
PKG_INFO
10
0
20
-12.192
40
1.778
1
*GATEPIN:= 0 5 2 <>
0
TEXT
8
PKG_INFO
10
0
20
-15.24
40
1.778
1
*GATEPIN:= 0 5 3 <>
0
TEXT
8
PKG_INFO
10
0
20
-18.288
40
1.778
1
*GATEPIN:= 0 5 4 <>
0
TEXT
8
PKG_INFO
10
0
20
-21.336
40
1.778
1
*GATEPIN:= 0 5 5 <>
0
TEXT
8
PKG_INFO
10
0
20
-24.384
40
1.778
1
*GATEPIN:= 0 5 6 <>
0
TEXT
8
PKG_INFO
10
0
20
-27.432
40
1.778
1
*GATEPIN:= 0 5 7 <>
0
TEXT
8
PKG_INFO
10
0
20
-30.48
40
1.778
1
*GATEPIN:= 0 5 8 <>
0
ENDBLK
0
BLOCK
2
SYM_BOT_60
8
0
10
0
20
0
3
SYM_BOT_60
70
64
0
TEXT
8
SYM_NAME
10
0
20
0
40
1.778
1
M2_NGFF_KEY_E
41
0.75
0
TEXT
8
SYM_ATTRIBUTE_126
10
-11.0134673333
20
6.2800353333
40
0.889
1
Comment
41
0.75
7
W0$127R0
0
TEXT
8
SYM_PART_NAME_126
10
-11.0134673333
20
7.5500353333
40
0.889
1
 
41
0.75
7
W0$127R0
0
INSERT
2
PART_BODY_BOT_58
8
0
10
0
20
0
0
INSERT
2
STK_BOT_86
8
0
10
-9.99998
20
-1.47498
0
TEXT
8
SYM_TERMINAL
10
0
20
-3.048
40
1.778
1
78
0
INSERT
2
STK_BOT_87
8
0
10
9.99998
20
-1.47498
0
TEXT
8
SYM_TERMINAL
10
0
20
-6.096
40
1.778
1
79
0
INSERT
2
STK_BOT_88
8
0
10
-10.349992
20
3.024886
0
TEXT
8
SYM_TERMINAL
10
0
20
-9.144
40
1.778
1
77
0
INSERT
2
STK_BOT_88
8
0
10
10.34999
20
3.02489
0
TEXT
8
SYM_TERMINAL
10
0
20
-12.192
40
1.778
1
76
0
INSERT
2
STK_BOT_105
8
0
10
-9.2499686667
20
3.724992
0
TEXT
8
SYM_TERMINAL
10
0
20
-15.24
40
1.778
1
1
0
INSERT
2
STK_BOT_105
8
0
10
-8.9999946667
20
-3.725028
0
TEXT
8
SYM_TERMINAL
10
0
20
-18.288
40
1.778
1
2
0
INSERT
2
STK_BOT_105
8
0
10
-8.749966
20
3.724974
0
TEXT
8
SYM_TERMINAL
10
0
20
-21.336
40
1.778
1
3
0
INSERT
2
STK_BOT_105
8
0
10
-8.499972
20
-3.7250293333
0
TEXT
8
SYM_TERMINAL
10
0
20
-24.384
40
1.778
1
4
0
INSERT
2
STK_BOT_105
8
0
10
-8.2499813333
20
3.724974
0
TEXT
8
SYM_TERMINAL
10
0
20
-27.432
40
1.778
1
5
0
INSERT
2
STK_BOT_105
8
0
10
-7.9999886667
20
-3.725028
0
TEXT
8
SYM_TERMINAL
10
0
20
-30.48
40
1.778
1
6
0
INSERT
2
STK_BOT_105
8
0
10
-7.7499606667
20
3.724974
0
TEXT
8
SYM_TERMINAL
10
0
20
-33.528
40
1.778
1
7
0
INSERT
2
STK_BOT_105
8
0
10
-7.499988
20
-3.725008
0
TEXT
8
SYM_TERMINAL
10
0
20
-36.576
40
1.778
1
8
0
INSERT
2
STK_BOT_105
8
0
10
-7.249976
20
3.724974
0
TEXT
8
SYM_TERMINAL
10
0
20
-39.624
40
1.778
1
9
0
INSERT
2
STK_BOT_105
8
0
10
-6.9999833333
20
-3.725028
0
TEXT
8
SYM_TERMINAL
10
0
20
-42.672
40
1.778
1
10
0
INSERT
2
STK_BOT_105
8
0
10
-6.7499913333
20
3.724974
0
TEXT
8
SYM_TERMINAL
10
0
20
-45.72
40
1.778
1
11
0
INSERT
2
STK_BOT_105
8
0
10
-4.49997
20
-3.72501
0
TEXT
8
SYM_TERMINAL
10
0
20
-48.768
40
1.778
1
20
0
INSERT
2
STK_BOT_105
8
0
10
-4.25
20
3.72497
0
TEXT
8
SYM_TERMINAL
10
0
20
-51.816
40
1.778
1
21
0
INSERT
2
STK_BOT_105
8
0
10
-3.75
20
3.72497
0
TEXT
8
SYM_TERMINAL
10
0
20
-54.864
40
1.778
1
23
0
INSERT
2
STK_BOT_105
8
0
10
-1.25
20
3.72497
0
TEXT
8
SYM_TERMINAL
10
0
20
-57.912
40
1.778
1
33
0
INSERT
2
STK_BOT_105
8
0
10
0.25
20
3.72497
0
TEXT
8
SYM_TERMINAL
10
0
20
-60.96
40
1.778
1
39
0
INSERT
2
STK_BOT_105
8
0
10
0.75
20
3.72497
0
TEXT
8
SYM_TERMINAL
10
0
20
-64.008
40
1.778
1
41
0
INSERT
2
STK_BOT_105
8
0
10
1.25
20
3.72497
0
TEXT
8
SYM_TERMINAL
10
0
20
-67.056
40
1.778
1
43
0
INSERT
2
STK_BOT_105
8
0
10
1.75
20
3.72497
0
TEXT
8
SYM_TERMINAL
10
0
20
-70.104
40
1.778
1
45
0
INSERT
2
STK_BOT_105
8
0
10
2.25
20
3.72497
0
TEXT
8
SYM_TERMINAL
10
0
20
-73.152
40
1.778
1
47
0
INSERT
2
STK_BOT_105
8
0
10
2.75
20
3.72497
0
TEXT
8
SYM_TERMINAL
10
0
20
-76.2
40
1.778
1
49
0
INSERT
2
STK_BOT_105
8
0
10
3.25
20
3.72497
0
TEXT
8
SYM_TERMINAL
10
0
20
-79.248
40
1.778
1
51
0
INSERT
2
STK_BOT_105
8
0
10
3.75
20
3.72497
0
TEXT
8
SYM_TERMINAL
10
0
20
-82.296
40
1.778
1
53
0
INSERT
2
STK_BOT_105
8
0
10
4.25
20
3.72497
0
TEXT
8
SYM_TERMINAL
10
0
20
-85.344
40
1.778
1
55
0
INSERT
2
STK_BOT_105
8
0
10
4.75
20
3.72497
0
TEXT
8
SYM_TERMINAL
10
0
20
-88.392
40
1.778
1
57
0
INSERT
2
STK_BOT_105
8
0
10
7.25
20
3.75
0
TEXT
8
SYM_TERMINAL
10
0
20
-91.44
40
1.778
1
67
0
INSERT
2
STK_BOT_105
8
0
10
7.75
20
3.72497
0
TEXT
8
SYM_TERMINAL
10
0
20
-94.488
40
1.778
1
69
0
INSERT
2
STK_BOT_105
8
0
10
8.25
20
3.72497
0
TEXT
8
SYM_TERMINAL
10
0
20
-97.536
40
1.778
1
71
0
INSERT
2
STK_BOT_105
8
0
10
8.75
20
3.72497
0
TEXT
8
SYM_TERMINAL
10
0
20
-100.584
40
1.778
1
73
0
INSERT
2
STK_BOT_105
8
0
10
9.25
20
3.72497
0
TEXT
8
SYM_TERMINAL
10
0
20
-103.632
40
1.778
1
75
0
INSERT
2
STK_BOT_105
8
0
10
-3.99997
20
-3.72501
0
TEXT
8
SYM_TERMINAL
10
0
20
-106.68
40
1.778
1
22
0
INSERT
2
STK_BOT_105
8
0
10
-1.49997
20
-3.72501
0
TEXT
8
SYM_TERMINAL
10
0
20
-109.728
40
1.778
1
32
0
INSERT
2
STK_BOT_105
8
0
10
-0.99997
20
-3.72501
0
TEXT
8
SYM_TERMINAL
10
0
20
-112.776
40
1.778
1
34
0
INSERT
2
STK_BOT_105
8
0
10
-0.49997
20
-3.72501
0
TEXT
8
SYM_TERMINAL
10
0
20
-115.824
40
1.778
1
36
0
INSERT
2
STK_BOT_105
8
0
10
0.00003
20
-3.72501
0
TEXT
8
SYM_TERMINAL
10
0
20
-118.872
40
1.778
1
38
0
INSERT
2
STK_BOT_105
8
0
10
0.50003
20
-3.72501
0
TEXT
8
SYM_TERMINAL
10
0
20
-121.92
40
1.778
1
40
0
INSERT
2
STK_BOT_105
8
0
10
1.00003
20
-3.72501
0
TEXT
8
SYM_TERMINAL
10
0
20
-124.968
40
1.778
1
42
0
INSERT
2
STK_BOT_105
8
0
10
1.50003
20
-3.72501
0
TEXT
8
SYM_TERMINAL
10
0
20
-128.016
40
1.778
1
44
0
INSERT
2
STK_BOT_105
8
0
10
2.00003
20
-3.72501
0
TEXT
8
SYM_TERMINAL
10
0
20
-131.064
40
1.778
1
46
0
INSERT
2
STK_BOT_105
8
0
10
2.50003
20
-3.72501
0
TEXT
8
SYM_TERMINAL
10
0
20
-134.112
40
1.778
1
48
0
INSERT
2
STK_BOT_105
8
0
10
3.00003
20
-3.72501
0
TEXT
8
SYM_TERMINAL
10
0
20
-137.16
40
1.778
1
50
0
INSERT
2
STK_BOT_105
8
0
10
3.50003
20
-3.72501
0
TEXT
8
SYM_TERMINAL
10
0
20
-140.208
40
1.778
1
52
0
INSERT
2
STK_BOT_105
8
0
10
4.00003
20
-3.72501
0
TEXT
8
SYM_TERMINAL
10
0
20
-143.256
40
1.778
1
54
0
INSERT
2
STK_BOT_105
8
0
10
4.50003
20
-3.72501
0
TEXT
8
SYM_TERMINAL
10
0
20
-146.304
40
1.778
1
56
0
INSERT
2
STK_BOT_105
8
0
10
5.00003
20
-3.72501
0
TEXT
8
SYM_TERMINAL
10
0
20
-149.352
40
1.778
1
58
0
INSERT
2
STK_BOT_105
8
0
10
7.50003
20
-3.72501
0
TEXT
8
SYM_TERMINAL
10
0
20
-152.4
40
1.778
1
68
0
INSERT
2
STK_BOT_105
8
0
10
8.00003
20
-3.72501
0
TEXT
8
SYM_TERMINAL
10
0
20
-155.448
40
1.778
1
70
0
INSERT
2
STK_BOT_105
8
0
10
8.50003
20
-3.72501
0
TEXT
8
SYM_TERMINAL
10
0
20
-158.496
40
1.778
1
72
0
INSERT
2
STK_BOT_105
8
0
10
9.00003
20
-3.72501
0
TEXT
8
SYM_TERMINAL
10
0
20
-161.544
40
1.778
1
74
0
INSERT
2
STK_BOT_105
8
0
10
-6.25
20
3.72497
0
TEXT
8
SYM_TERMINAL
10
0
20
-164.592
40
1.778
1
13
0
INSERT
2
STK_BOT_105
8
0
10
-5.75
20
3.72497
0
TEXT
8
SYM_TERMINAL
10
0
20
-167.64
40
1.778
1
15
0
INSERT
2
STK_BOT_105
8
0
10
-5.25
20
3.72497
0
TEXT
8
SYM_TERMINAL
10
0
20
-170.688
40
1.778
1
17
0
INSERT
2
STK_BOT_105
8
0
10
-4.75
20
3.72497
0
TEXT
8
SYM_TERMINAL
10
0
20
-173.736
40
1.778
1
19
0
INSERT
2
STK_BOT_105
8
0
10
-6.49997
20
-3.72501
0
TEXT
8
SYM_TERMINAL
10
0
20
-176.784
40
1.778
1
12
0
INSERT
2
STK_BOT_105
8
0
10
-5.99997
20
-3.72501
0
TEXT
8
SYM_TERMINAL
10
0
20
-179.832
40
1.778
1
14
0
INSERT
2
STK_BOT_105
8
0
10
-5.49997
20
-3.72501
0
TEXT
8
SYM_TERMINAL
10
0
20
-182.88
40
1.778
1
16
0
INSERT
2
STK_BOT_105
8
0
10
-4.99997
20
-3.72501
0
TEXT
8
SYM_TERMINAL
10
0
20
-185.928
40
1.778
1
18
0
INSERT
2
STK_BOT_105
8
0
10
5.25
20
3.72497
0
TEXT
8
SYM_TERMINAL
10
0
20
-188.976
40
1.778
1
59
0
INSERT
2
STK_BOT_105
8
0
10
5.75
20
3.72497
0
TEXT
8
SYM_TERMINAL
10
0
20
-192.024
40
1.778
1
61
0
INSERT
2
STK_BOT_105
8
0
10
6.25
20
3.72497
0
TEXT
8
SYM_TERMINAL
10
0
20
-195.072
40
1.778
1
63
0
INSERT
2
STK_BOT_105
8
0
10
6.75
20
3.72497
0
TEXT
8
SYM_TERMINAL
10
0
20
-198.12
40
1.778
1
65
0
INSERT
2
STK_BOT_105
8
0
10
5.50003
20
-3.72501
0
TEXT
8
SYM_TERMINAL
10
0
20
-201.168
40
1.778
1
60
0
INSERT
2
STK_BOT_105
8
0
10
6.00003
20
-3.72501
0
TEXT
8
SYM_TERMINAL
10
0
20
-204.216
40
1.778
1
62
0
INSERT
2
STK_BOT_105
8
0
10
6.50003
20
-3.72501
0
TEXT
8
SYM_TERMINAL
10
0
20
-207.264
40
1.778
1
64
0
INSERT
2
STK_BOT_105
8
0
10
7.00003
20
-3.72501
0
TEXT
8
SYM_TERMINAL
10
0
20
-210.312
40
1.778
1
66
0
INSERT
2
STK_BOT_105
8
0
10
-0.25
20
3.72497
0
TEXT
8
SYM_TERMINAL
10
0
20
-213.36
40
1.778
1
37
0
INSERT
2
STK_BOT_105
8
0
10
-0.75
20
3.72497
0
TEXT
8
SYM_TERMINAL
10
0
20
-216.408
40
1.778
1
35
0
ENDBLK
0
BLOCK
2
PKG_51
8
0
10
0
20
0
3
PKG_51
70
64
0
TEXT
8
PKG_INFO
10
0
20
0
40
1.778
1
*SYM:= 60
0
TEXT
8
PKG_INFO
10
0
20
-3.048
40
1.778
1
*PKG:= 0 M2_NGFF_KEY_E UND
0
ENDBLK
0
BLOCK
2
SYM_BOT_55
8
0
10
0
20
0
3
SYM_BOT_55
70
64
0
TEXT
8
SYM_NAME
10
0
20
0
40
1.778
1
SOT23-8
41
0.75
0
TEXT
8
SYM_PART_NAME_01
10
-0.975
20
1.2
40
0.889
1
 
41
0.75
7
W0$127R0
0
TEXT
8
SYM_ATTRIBUTE_01
10
-0.975
20
1.2
40
0.42
1
Value
73
2
11
-0.975
21
1.2
41
0.75
7
W0$254R0
0
INSERT
2
PART_BODY_BOT_53
8
0
10
0
20
0
0
INSERT
2
STK_BOT_100
8
0
10
-0.975
20
-1.35
0
TEXT
8
SYM_TERMINAL
10
0
20
-3.048
40
1.778
1
1
0
INSERT
2
STK_BOT_100
8
0
10
-0.32512
20
-1.35001
0
TEXT
8
SYM_TERMINAL
10
0
20
-6.096
40
1.778
1
2
0
INSERT
2
STK_BOT_100
8
0
10
0.32512
20
-1.35001
0
TEXT
8
SYM_TERMINAL
10
0
20
-9.144
40
1.778
1
3
0
INSERT
2
STK_BOT_100
8
0
10
0.975106
20
-1.35001
0
TEXT
8
SYM_TERMINAL
10
0
20
-12.192
40
1.778
1
4
0
INSERT
2
STK_BOT_100
8
0
10
0.975106
20
1.35001
0
TEXT
8
SYM_TERMINAL
10
0
20
-15.24
40
1.778
1
5
0
INSERT
2
STK_BOT_100
8
0
10
0.32512
20
1.35001
0
TEXT
8
SYM_TERMINAL
10
0
20
-18.288
40
1.778
1
6
0
INSERT
2
STK_BOT_100
8
0
10
-0.32512
20
1.35001
0
TEXT
8
SYM_TERMINAL
10
0
20
-21.336
40
1.778
1
7
0
INSERT
2
STK_BOT_100
8
0
10
-0.975
20
1.35
0
TEXT
8
SYM_TERMINAL
10
0
20
-24.384
40
1.778
1
8
0
ENDBLK
0
BLOCK
2
PKG_47
8
0
10
0
20
0
3
PKG_47
70
64
0
TEXT
8
PKG_INFO
10
0
20
0
40
1.778
1
*SYM:= 55
0
TEXT
8
PKG_INFO
10
0
20
-3.048
40
1.778
1
*PKG:= 0 SOT23-8 UND
0
ENDBLK
0
BLOCK
2
SYM_BOT_72
8
0
10
0
20
0
3
SYM_BOT_72
70
64
0
TEXT
8
SYM_NAME
10
0
20
0
40
1.778
1
H2.8MM-1
41
0.75
0
TEXT
8
SYM_PART_NAME_01
10
-0.3
20
0.21
40
0.889
1
 
41
0.75
7
W0$127R0
0
TEXT
8
SYM_PART_TYPE_01
10
-0.3
20
0.21
40
0.889
1
 
73
2
11
-0.3
21
0.21
41
0.75
7
W0$127R0
0
INSERT
2
PART_BODY_BOT_128
8
0
10
0
20
0
0
INSERT
2
STK_BOT_231
8
0
10
0
20
0
0
TEXT
8
SYM_TERMINAL
10
0
20
-3.048
40
1.778
1
1
0
ENDBLK
0
BLOCK
2
PKG_56
8
0
10
0
20
0
3
PKG_56
70
64
0
TEXT
8
PKG_INFO
10
0
20
0
40
1.778
1
*SYM:= 65 72
0
TEXT
8
PKG_INFO
10
0
20
-3.048
40
1.778
1
*PKG:= 0 H2.8MM UND
0
ENDBLK
0
BLOCK
2
SYM_BOT_66
8
0
10
0
20
0
3
SYM_BOT_66
70
64
0
TEXT
8
SYM_NAME
10
0
20
0
40
1.778
1
MARK-1
41
0.75
0
INSERT
2
PART_BODY_BOT_86
8
0
10
0
20
0
0
INSERT
2
STK_BOT_152
8
0
10
0
20
0
0
TEXT
8
SYM_TERMINAL
10
0
20
-3.048
40
1.778
1
1
0
ENDBLK
0
BLOCK
2
PKG_57
8
0
10
0
20
0
3
PKG_57
70
64
0
TEXT
8
PKG_INFO
10
0
20
0
40
1.778
1
*SYM:= 66
0
TEXT
8
PKG_INFO
10
0
20
-3.048
40
1.778
1
*PKG:= 0 MARK UND
0
TEXT
8
PKG_INFO
10
0
20
-6.096
40
1.778
1
*GATE:=0
0
TEXT
8
PKG_INFO
10
0
20
-9.144
40
1.778
1
*GATEPIN:= 0 9 1 <>
0
ENDBLK
0
BLOCK
2
SYM_BOT_39
8
0
10
0
20
0
3
SYM_BOT_39
70
64
0
TEXT
8
SYM_NAME
10
0
20
0
40
1.778
1
SOT_323
41
0.75
0
TEXT
8
SYM_PART_TYPE_126
10
0
20
0
40
0.7
1
 
72
1
73
1
11
0
21
0
41
0.75
7
W0$127R1
0
TEXT
8
SYM_PART_NAME_126
10
0
20
0
40
0.7
1
 
72
1
73
1
11
0
21
0
41
0.75
7
W0$127R1
0
TEXT
8
SYM_ATTRIBUTE_126
10
0
20
0
40
0.7
1
Value
72
1
73
1
11
0
21
0
41
0.75
7
W0$127R1
0
INSERT
2
PART_BODY_BOT_37
8
0
10
0
20
0
0
INSERT
2
STK_BOT_66
8
0
10
-0.65
20
-0.95
0
TEXT
8
SYM_TERMINAL
10
0
20
-3.048
40
1.778
1
1
0
INSERT
2
STK_BOT_66
8
0
10
0.65
20
-0.95
0
TEXT
8
SYM_TERMINAL
10
0
20
-6.096
40
1.778
1
2
0
INSERT
2
STK_BOT_66
8
0
10
0
20
0.95
0
TEXT
8
SYM_TERMINAL
10
0
20
-9.144
40
1.778
1
3
0
ENDBLK
0
BLOCK
2
PKG_31
8
0
10
0
20
0
3
PKG_31
70
64
0
TEXT
8
PKG_INFO
10
0
20
0
40
1.778
1
*SYM:= 39
0
TEXT
8
PKG_INFO
10
0
20
-3.048
40
1.778
1
*PKG:= 0 SOT_323 UND
0
TEXT
8
PKG_INFO
10
0
20
-6.096
40
1.778
1
*GATE:=0
0
TEXT
8
PKG_INFO
10
0
20
-9.144
40
1.778
1
*GATEPIN:= 0 9 1 <>
0
TEXT
8
PKG_INFO
10
0
20
-12.192
40
1.778
1
*GATEPIN:= 0 9 2 <>
0
TEXT
8
PKG_INFO
10
0
20
-15.24
40
1.778
1
*GATEPIN:= 0 9 3 <>
0
ENDBLK
0
BLOCK
2
PART_BODY_BOT_2
8
0
10
0
20
0
3
PART_BODY_BOT_2
70
64
0
POLYLINE
8
PART_BOT_2DLINE_00
66
1
40
0.127
41
0.127
70
1
0
VERTEX
8
PART_BOT_2DLINE_00
10
0.75
20
-0.35
42
0.4142135624
0
VERTEX
8
PART_BOT_2DLINE_00
10
0.75
20
0.35
0
VERTEX
8
PART_BOT_2DLINE_00
10
-0.75
20
0.35
42
0.3733874335
0
VERTEX
8
PART_BOT_2DLINE_00
10
-0.75
20
-0.35
0
SEQEND
0
INSERT
2
SMOOTH_0$127
8
PART_BOT_2DLINE_00
10
0.75
20
-0.35
0
INSERT
2
SMOOTH_0$127
8
PART_BOT_2DLINE_00
10
0.75
20
0.35
0
INSERT
2
SMOOTH_0$127
8
PART_BOT_2DLINE_00
10
-0.75
20
0.35
0
INSERT
2
SMOOTH_0$127
8
PART_BOT_2DLINE_00
10
-0.75
20
-0.35
0
ENDBLK
0
BLOCK
2
STK_BOT_6
8
0
10
0
20
0
3
STK_BOT_6
70
64
0
INSERT
2
DRIL_HOLE_0
8
DRIL_PLTE_THRU_01
10
0
20
0
0
INSERT
2
DRIL_HOLE_0
8
DRIL_PLTE_THRU_02
10
0
20
0
0
INSERT
2
DRIL_HOLE_0
8
DRIL_PLTE_THRU_03
10
0
20
0
0
INSERT
2
DRIL_HOLE_0
8
DRIL_PLTE_THRU_04
10
0
20
0
0
INSERT
2
PAD_0
8
PADS_INNER
10
0
20
0
0
INSERT
2
PAD_1
8
PADS_BOT
10
0
20
0
0
INSERT
2
PAD_0
8
PADS_TOP
10
0
20
0
0
ENDBLK
0
BLOCK
2
STK_BOT_7
8
0
10
0
20
0
3
STK_BOT_7
70
64
0
INSERT
2
DRIL_HOLE_0
8
DRIL_PLTE_THRU_01
10
0
20
0
0
INSERT
2
DRIL_HOLE_0
8
DRIL_PLTE_THRU_02
10
0
20
0
0
INSERT
2
DRIL_HOLE_0
8
DRIL_PLTE_THRU_03
10
0
20
0
0
INSERT
2
DRIL_HOLE_0
8
DRIL_PLTE_THRU_04
10
0
20
0
0
INSERT
2
PAD_0
8
PADS_INNER
10
0
20
0
0
INSERT
2
PAD_1
8
PADS_BOT
10
0
20
0
0
INSERT
2
PAD_0
8
PADS_TOP
10
0
20
0
0
ENDBLK
0
BLOCK
2
PART_BODY_BOT_17
8
0
10
0
20
0
3
PART_BODY_BOT_17
70
64
0
POLYLINE
8
PART_BOT_2DLINE_01
66
1
40
0.127
41
0.127
70
1
0
VERTEX
8
PART_BOT_2DLINE_01
10
-0.8
20
-0.35
0
VERTEX
8
PART_BOT_2DLINE_01
10
-0.8
20
0.35
0
VERTEX
8
PART_BOT_2DLINE_01
10
0.8
20
0.35
0
VERTEX
8
PART_BOT_2DLINE_01
10
0.8
20
-0.35
0
SEQEND
0
INSERT
2
SMOOTH_0$127
8
PART_BOT_2DLINE_01
10
-0.8
20
-0.35
0
INSERT
2
SMOOTH_0$127
8
PART_BOT_2DLINE_01
10
-0.8
20
0.35
0
INSERT
2
SMOOTH_0$127
8
PART_BOT_2DLINE_01
10
0.8
20
0.35
0
INSERT
2
SMOOTH_0$127
8
PART_BOT_2DLINE_01
10
0.8
20
-0.35
0
ENDBLK
0
BLOCK
2
PART_BODY_BOT_40
8
0
10
0
20
0
3
PART_BODY_BOT_40
70
64
0
POLYLINE
8
PART_BOT_2DLINE_126
66
1
40
0.1524
41
0.1524
39
-0.6
70
1
0
VERTEX
8
PART_BOT_2DLINE_126
10
-1.569974
20
-0.690118
0
VERTEX
8
PART_BOT_2DLINE_126
10
1.569974
20
-0.690118
0
VERTEX
8
PART_BOT_2DLINE_126
10
1.569974
20
0.690118
0
VERTEX
8
PART_BOT_2DLINE_126
10
-1.569974
20
0.690118
0
SEQEND
0
INSERT
2
SMOOTH_0$1524
8
PART_BOT_2DLINE_126
10
-1.569974
20
-0.690118
0
INSERT
2
SMOOTH_0$1524
8
PART_BOT_2DLINE_126
10
1.569974
20
-0.690118
0
INSERT
2
SMOOTH_0$1524
8
PART_BOT_2DLINE_126
10
1.569974
20
0.690118
0
INSERT
2
SMOOTH_0$1524
8
PART_BOT_2DLINE_126
10
-1.569974
20
0.690118
0
ENDBLK
0
BLOCK
2
STK_BOT_70
8
0
10
0
20
0
3
STK_BOT_70
70
64
0
INSERT
2
DRIL_HOLE_0
8
DRIL_PLTE_THRU_01
10
0
20
0
0
INSERT
2
DRIL_HOLE_0
8
DRIL_PLTE_THRU_02
10
0
20
0
0
INSERT
2
DRIL_HOLE_0
8
DRIL_PLTE_THRU_03
10
0
20
0
0
INSERT
2
DRIL_HOLE_0
8
DRIL_PLTE_THRU_04
10
0
20
0
0
INSERT
2
PAD_0
8
PADS_INNER
10
0
20
0
0
INSERT
2
PAD_2
8
PADS_BOT
10
0
20
0
0
INSERT
2
PAD_0
8
PADS_TOP
10
0
20
0
0
ENDBLK
0
BLOCK
2
PART_BODY_BOT_3
8
0
10
0
20
0
3
PART_BODY_BOT_3
70
64
0
POLYLINE
8
PART_BOT_2DLINE_01
66
1
40
0.127
41
0.127
70
1
0
VERTEX
8
PART_BOT_2DLINE_01
10
1.25
20
-0.55
42
0.4327386422
0
VERTEX
8
PART_BOT_2DLINE_01
10
1.25
20
0.55
0
VERTEX
8
PART_BOT_2DLINE_01
10
-1.25
20
0.55
42
0.4504671537
0
VERTEX
8
PART_BOT_2DLINE_01
10
-1.25
20
-0.55
0
SEQEND
0
INSERT
2
SMOOTH_0$127
8
PART_BOT_2DLINE_01
10
1.25
20
-0.55
0
INSERT
2
SMOOTH_0$127
8
PART_BOT_2DLINE_01
10
1.25
20
0.55
0
INSERT
2
SMOOTH_0$127
8
PART_BOT_2DLINE_01
10
-1.25
20
0.55
0
INSERT
2
SMOOTH_0$127
8
PART_BOT_2DLINE_01
10
-1.25
20
-0.55
0
ENDBLK
0
BLOCK
2
STK_BOT_8
8
0
10
0
20
0
3
STK_BOT_8
70
64
0
INSERT
2
DRIL_HOLE_0
8
DRIL_PLTE_THRU_01
10
0
20
0
0
INSERT
2
DRIL_HOLE_0
8
DRIL_PLTE_THRU_02
10
0
20
0
0
INSERT
2
DRIL_HOLE_0
8
DRIL_PLTE_THRU_03
10
0
20
0
0
INSERT
2
DRIL_HOLE_0
8
DRIL_PLTE_THRU_04
10
0
20
0
0
INSERT
2
PAD_0
8
PADS_INNER
10
0
20
0
0
INSERT
2
PAD_3
8
PADS_BOT
10
0
20
0
0
INSERT
2
PAD_0
8
PADS_TOP
10
0
20
0
0
ENDBLK
0
BLOCK
2
PART_BODY_BOT_15
8
0
10
0
20
0
3
PART_BODY_BOT_15
70
64
0
POLYLINE
8
PART_BOT_2DLINE_01
66
1
40
0.127
41
0.127
0
VERTEX
8
PART_BOT_2DLINE_01
10
-0.12954
20
0.4
0
VERTEX
8
PART_BOT_2DLINE_01
10
-0.9
20
0.4
0
VERTEX
8
PART_BOT_2DLINE_01
10
-0.9
20
-0.4
0
VERTEX
8
PART_BOT_2DLINE_01
10
-0.12954
20
-0.4
0
SEQEND
0
INSERT
2
SMOOTH_0$127
8
PART_BOT_2DLINE_01
10
-0.12954
20
0.4
0
INSERT
2
SMOOTH_0$127
8
PART_BOT_2DLINE_01
10
-0.9
20
0.4
0
INSERT
2
SMOOTH_0$127
8
PART_BOT_2DLINE_01
10
-0.9
20
-0.4
0
INSERT
2
SMOOTH_0$127
8
PART_BOT_2DLINE_01
10
-0.12954
20
-0.4
0
POLYLINE
8
PART_BOT_2DLINE_01
66
1
40
0.127
41
0.127
0
VERTEX
8
PART_BOT_2DLINE_01
10
0.1295393333
20
0.4
0
VERTEX
8
PART_BOT_2DLINE_01
10
0.89
20
0.4
0
VERTEX
8
PART_BOT_2DLINE_01
10
0.89
20
-0.4
0
VERTEX
8
PART_BOT_2DLINE_01
10
0.1295393333
20
-0.4
0
SEQEND
0
INSERT
2
SMOOTH_0$127
8
PART_BOT_2DLINE_01
10
0.1295393333
20
0.4
0
INSERT
2
SMOOTH_0$127
8
PART_BOT_2DLINE_01
10
0.89
20
0.4
0
INSERT
2
SMOOTH_0$127
8
PART_BOT_2DLINE_01
10
0.89
20
-0.4
0
INSERT
2
SMOOTH_0$127
8
PART_BOT_2DLINE_01
10
0.1295393333
20
-0.4
0
POLYLINE
8
PART_BOT_2DLINE_127
66
1
40
0.0254
41
0.0254
70
1
0
VERTEX
8
PART_BOT_2DLINE_127
10
1.02108
20
-0.43942
0
VERTEX
8
PART_BOT_2DLINE_127
10
-1.02108
20
-0.43942
0
VERTEX
8
PART_BOT_2DLINE_127
10
-1.02108
20
0.4394193333
0
VERTEX
8
PART_BOT_2DLINE_127
10
1.02108
20
0.4394193333
0
SEQEND
0
INSERT
2
SMOOTH_0$0254
8
PART_BOT_2DLINE_127
10
1.02108
20
-0.43942
0
INSERT
2
SMOOTH_0$0254
8
PART_BOT_2DLINE_127
10
-1.02108
20
-0.43942
0
INSERT
2
SMOOTH_0$0254
8
PART_BOT_2DLINE_127
10
-1.02108
20
0.4394193333
0
INSERT
2
SMOOTH_0$0254
8
PART_BOT_2DLINE_127
10
1.02108
20
0.4394193333
0
POLYLINE
8
PART_BOT_COPPER_01
6
TRMIDX_1
66
1
40
0.0254
41
0.0254
70
1
0
VERTEX
8
PART_BOT_COPPER_01
10
0.2413
20
0.1778
0
VERTEX
8
PART_BOT_COPPER_01
10
0.0635
20
0
0
VERTEX
8
PART_BOT_COPPER_01
10
0.2413
20
-0.1778
0
SEQEND
0
INSERT
2
SMOOTH_0$0254
8
PART_BOT_COPPER_01
10
0.2413
20
0.1778
0
INSERT
2
SMOOTH_0$0254
8
PART_BOT_COPPER_01
10
0.0635
20
0
0
INSERT
2
SMOOTH_0$0254
8
PART_BOT_COPPER_01
10
0.2413
20
-0.1778
0
POLYLINE
8
PART_BOT_COPPER_01
6
TRMIDX_0
66
1
40
0.0254
41
0.0254
70
1
0
VERTEX
8
PART_BOT_COPPER_01
10
-0.2667
20
0.2032
0
VERTEX
8
PART_BOT_COPPER_01
10
-0.0635
20
0
0
VERTEX
8
PART_BOT_COPPER_01
10
-0.2667
20
-0.2032
0
SEQEND
0
INSERT
2
SMOOTH_0$0254
8
PART_BOT_COPPER_01
10
-0.2667
20
0.2032
0
INSERT
2
SMOOTH_0$0254
8
PART_BOT_COPPER_01
10
-0.0635
20
0
0
INSERT
2
SMOOTH_0$0254
8
PART_BOT_COPPER_01
10
-0.2667
20
-0.2032
0
ENDBLK
0
BLOCK
2
PART_BODY_BOT_125
8
0
10
0
20
0
3
PART_BODY_BOT_125
70
64
0
POLYLINE
8
PART_BOT_2DLINE_01
66
1
40
0.127
41
0.127
39
-1
70
1
0
VERTEX
8
PART_BOT_2DLINE_01
10
-0.3
20
-1.8
0
VERTEX
8
PART_BOT_2DLINE_01
10
-0.3
20
0.29719
0
VERTEX
8
PART_BOT_2DLINE_01
10
-0.29719
20
0.3
0
VERTEX
8
PART_BOT_2DLINE_01
10
1.3
20
0.3
0
VERTEX
8
PART_BOT_2DLINE_01
10
1.3
20
-1.8
0
SEQEND
0
INSERT
2
SMOOTH_0$127
8
PART_BOT_2DLINE_01
10
-0.3
20
-1.8
0
INSERT
2
SMOOTH_0$127
8
PART_BOT_2DLINE_01
10
-0.3
20
0.29719
0
INSERT
2
SMOOTH_0$127
8
PART_BOT_2DLINE_01
10
-0.29719
20
0.3
0
INSERT
2
SMOOTH_0$127
8
PART_BOT_2DLINE_01
10
1.3
20
0.3
0
INSERT
2
SMOOTH_0$127
8
PART_BOT_2DLINE_01
10
1.3
20
-1.8
0
POLYLINE
8
PART_BOT_2DLINE_01
66
1
40
0.127
41
0.127
39
-1
70
1
0
VERTEX
8
PART_BOT_2DLINE_01
10
1.65533
20
0.326
42
1
0
VERTEX
8
PART_BOT_2DLINE_01
10
1.25533
20
0.326
42
1
0
SEQEND
0
ENDBLK
0
BLOCK
2
STK_BOT_218
8
0
10
0
20
0
3
STK_BOT_218
70
64
0
INSERT
2
DRIL_HOLE_0
8
DRIL_NPLTE_THRU_01
10
0
20
0
0
INSERT
2
DRIL_HOLE_0
8
DRIL_NPLTE_THRU_02
10
0
20
0
0
INSERT
2
DRIL_HOLE_0
8
DRIL_NPLTE_THRU_03
10
0
20
0
0
INSERT
2
DRIL_HOLE_0
8
DRIL_NPLTE_THRU_04
10
0
20
0
0
INSERT
2
PAD_4
8
PADS_XR_123
10
0
20
0
0
INSERT
2
PAD_0
8
PADS_INNER
10
0
20
0
0
INSERT
2
PAD_4
8
PADS_XR_121
10
0
20
0
0
INSERT
2
PAD_4
8
PADS_BOT
10
0
20
0
0
INSERT
2
PAD_0
8
PADS_TOP
10
0
20
0
0
ENDBLK
0
BLOCK
2
PART_BODY_BOT_4
8
0
10
0
20
0
3
PART_BODY_BOT_4
70
64
0
POLYLINE
8
PART_BOT_2DLINE_01
66
1
40
0.127
41
0.127
70
1
0
VERTEX
8
PART_BOT_2DLINE_01
10
1.55
20
-0.85
42
0.4142135624
0
VERTEX
8
PART_BOT_2DLINE_01
10
1.55
20
0.85
0
VERTEX
8
PART_BOT_2DLINE_01
10
-1.55
20
0.85
42
0.4142135624
0
VERTEX
8
PART_BOT_2DLINE_01
10
-1.55
20
-0.85
0
SEQEND
0
INSERT
2
SMOOTH_0$127
8
PART_BOT_2DLINE_01
10
1.55
20
-0.85
0
INSERT
2
SMOOTH_0$127
8
PART_BOT_2DLINE_01
10
1.55
20
0.85
0
INSERT
2
SMOOTH_0$127
8
PART_BOT_2DLINE_01
10
-1.55
20
0.85
0
INSERT
2
SMOOTH_0$127
8
PART_BOT_2DLINE_01
10
-1.55
20
-0.85
0
ENDBLK
0
BLOCK
2
STK_BOT_9
8
0
10
0
20
0
3
STK_BOT_9
70
64
0
INSERT
2
DRIL_HOLE_0
8
DRIL_PLTE_THRU_01
10
0
20
0
0
INSERT
2
DRIL_HOLE_0
8
DRIL_PLTE_THRU_02
10
0
20
0
0
INSERT
2
DRIL_HOLE_0
8
DRIL_PLTE_THRU_03
10
0
20
0
0
INSERT
2
DRIL_HOLE_0
8
DRIL_PLTE_THRU_04
10
0
20
0
0
INSERT
2
PAD_0
8
PADS_INNER
10
0
20
0
0
INSERT
2
PAD_5
8
PADS_BOT
10
0
20
0
50
90
0
INSERT
2
PAD_0
8
PADS_TOP
10
0
20
0
0
ENDBLK
0
BLOCK
2
PART_BODY_BOT_5
8
0
10
0
20
0
3
PART_BODY_BOT_5
70
64
0
POLYLINE
8
PART_BOT_2DLINE_00
66
1
40
0.0254
41
0.0254
70
1
0
VERTEX
8
PART_BOT_2DLINE_00
10
-0.5499146667
20
-0.300012
0
VERTEX
8
PART_BOT_2DLINE_00
10
-0.5499146667
20
0.300012
0
VERTEX
8
PART_BOT_2DLINE_00
10
0.5499146667
20
0.300012
0
VERTEX
8
PART_BOT_2DLINE_00
10
0.5499146667
20
-0.300012
0
SEQEND
0
INSERT
2
SMOOTH_0$0254
8
PART_BOT_2DLINE_00
10
-0.5499146667
20
-0.300012
0
INSERT
2
SMOOTH_0$0254
8
PART_BOT_2DLINE_00
10
-0.5499146667
20
0.300012
0
INSERT
2
SMOOTH_0$0254
8
PART_BOT_2DLINE_00
10
0.5499146667
20
0.300012
0
INSERT
2
SMOOTH_0$0254
8
PART_BOT_2DLINE_00
10
0.5499146667
20
-0.300012
0
POLYLINE
8
PART_BOT_2DLINE_00
66
1
40
0.0254
41
0.0254
70
1
0
VERTEX
8
PART_BOT_2DLINE_00
10
-0.4750213333
20
-0.1750053333
0
VERTEX
8
PART_BOT_2DLINE_00
10
-0.4750213333
20
0.1750053333
0
VERTEX
8
PART_BOT_2DLINE_00
10
0.4749813333
20
0.1750053333
0
VERTEX
8
PART_BOT_2DLINE_00
10
0.4749813333
20
-0.1750053333
0
SEQEND
0
INSERT
2
SMOOTH_0$0254
8
PART_BOT_2DLINE_00
10
-0.4750213333
20
-0.1750053333
0
INSERT
2
SMOOTH_0$0254
8
PART_BOT_2DLINE_00
10
-0.4750213333
20
0.1750053333
0
INSERT
2
SMOOTH_0$0254
8
PART_BOT_2DLINE_00
10
0.4749813333
20
0.1750053333
0
INSERT
2
SMOOTH_0$0254
8
PART_BOT_2DLINE_00
10
0.4749813333
20
-0.1750053333
0
ENDBLK
0
BLOCK
2
STK_BOT_10
8
0
10
0
20
0
3
STK_BOT_10
70
64
0
INSERT
2
DRIL_HOLE_0
8
DRIL_PLTE_THRU_01
10
0
20
0
0
INSERT
2
DRIL_HOLE_0
8
DRIL_PLTE_THRU_02
10
0
20
0
0
INSERT
2
DRIL_HOLE_0
8
DRIL_PLTE_THRU_03
10
0
20
0
0
INSERT
2
DRIL_HOLE_0
8
DRIL_PLTE_THRU_04
10
0
20
0
0
INSERT
2
PAD_0
8
PADS_INNER
10
0
20
0
0
INSERT
2
PAD_6
8
PADS_BOT
10
0
20
0
50
90
0
INSERT
2
PAD_0
8
PADS_TOP
10
0
20
0
0
ENDBLK
0
BLOCK
2
SYM_TOP_8
8
0
10
0
20
0
3
SYM_TOP_8
70
64
0
TEXT
8
SYM_NAME
10
0
20
0
40
1.778
1
C0201A
41
0.75
0
TEXT
8
SYM_PART_NAME_126
10
-3.781252
20
2.013426
40
0.889
1
 
41
0.75
7
W0$127R0
0
TEXT
8
SYM_ATTRIBUTE_126
10
-3.781252
20
0.743426
40
0.889
1
Comment
41
0.75
7
W0$127R0
0
INSERT
2
PART_BODY_TOP_6
8
0
10
0
20
0
0
INSERT
2
STK_TOP_11
8
0
10
0.2751073333
20
0
0
TEXT
8
SYM_TERMINAL
10
0
20
-3.048
40
1.778
1
1
0
INSERT
2
STK_TOP_11
8
0
10
-0.2751073333
20
0
0
TEXT
8
SYM_TERMINAL
10
0
20
-6.096
40
1.778
1
2
0
ENDBLK
0
BLOCK
2
SYM_TOP_9
8
0
10
0
20
0
3
SYM_TOP_9
70
64
0
TEXT
8
SYM_NAME
10
0
20
0
40
1.778
1
C0201AA
41
0.75
0
INSERT
2
PART_BODY_TOP_7
8
0
10
0
20
0
0
INSERT
2
STK_TOP_12
8
0
10
-0.2751073333
20
0
0
TEXT
8
SYM_TERMINAL
10
0
20
-3.048
40
1.778
1
1
0
INSERT
2
STK_TOP_12
8
0
10
0.2751073333
20
0
0
TEXT
8
SYM_TERMINAL
10
0
20
-6.096
40
1.778
1
2
0
ENDBLK
0
BLOCK
2
SYM_TOP_10
8
0
10
0
20
0
3
SYM_TOP_10
70
64
0
TEXT
8
SYM_NAME
10
0
20
0
40
1.778
1
C0201AAA
41
0.75
0
TEXT
8
SYM_PART_NAME_126
10
-3.6542446667
20
1.8864233333
40
0.889
1
 
41
0.75
7
W0$127R0
0
TEXT
8
SYM_ATTRIBUTE_126
10
-3.6542446667
20
0.6164233333
40
0.889
1
Comment
41
0.75
7
W0$127R0
0
INSERT
2
PART_BODY_TOP_8
8
0
10
0
20
0
0
INSERT
2
STK_TOP_10
8
0
10
0.2751186667
20
0
0
TEXT
8
SYM_TERMINAL
10
0
20
-3.048
40
1.778
1
1
0
INSERT
2
STK_TOP_10
8
0
10
-0.2751186667
20
0
0
TEXT
8
SYM_TERMINAL
10
0
20
-6.096
40
1.778
1
2
0
ENDBLK
0
BLOCK
2
SYM_TOP_11
8
0
10
0
20
0
3
SYM_TOP_11
70
64
0
TEXT
8
SYM_NAME
10
0
20
0
40
1.778
1
C0201AAAA
41
0.75
0
TEXT
8
SYM_PART_NAME_126
10
-3.6542446667
20
1.8864233333
40
0.889
1
 
41
0.75
7
W0$127R0
0
TEXT
8
SYM_ATTRIBUTE_126
10
-3.6542446667
20
0.6164233333
40
0.889
1
Comment
41
0.75
7
W0$127R0
0
INSERT
2
PART_BODY_TOP_9
8
0
10
0
20
0
0
INSERT
2
STK_TOP_10
8
0
10
0.2751186667
20
0
0
TEXT
8
SYM_TERMINAL
10
0
20
-3.048
40
1.778
1
1
0
INSERT
2
STK_TOP_10
8
0
10
-0.2751186667
20
0
0
TEXT
8
SYM_TERMINAL
10
0
20
-6.096
40
1.778
1
2
0
ENDBLK
0
BLOCK
2
PART_BODY_BOT_10
8
0
10
0
20
0
3
PART_BODY_BOT_10
70
64
0
POLYLINE
8
PART_BOT_2DLINE_01
66
1
40
0.10008
41
0.10008
70
1
0
VERTEX
8
PART_BOT_2DLINE_01
10
3.984396
20
-6.3999933333
0
VERTEX
8
PART_BOT_2DLINE_01
10
3.984396
20
8.2999993333
0
VERTEX
8
PART_BOT_2DLINE_01
10
-10.5156
20
8.2999993333
0
VERTEX
8
PART_BOT_2DLINE_01
10
-10.5156
20
-6.3999933333
0
SEQEND
0
INSERT
2
SMOOTH_0$10008
8
PART_BOT_2DLINE_01
10
3.984396
20
-6.3999933333
0
INSERT
2
SMOOTH_0$10008
8
PART_BOT_2DLINE_01
10
3.984396
20
8.2999993333
0
INSERT
2
SMOOTH_0$10008
8
PART_BOT_2DLINE_01
10
-10.5156
20
8.2999993333
0
INSERT
2
SMOOTH_0$10008
8
PART_BOT_2DLINE_01
10
-10.5156
20
-6.3999933333
0
ENDBLK
0
BLOCK
2
STK_BOT_13
8
0
10
0
20
0
3
STK_BOT_13
70
64
0
INSERT
2
DRIL_HOLE_0
8
DRIL_PLTE_THRU_01
10
0
20
0
0
INSERT
2
DRIL_HOLE_0
8
DRIL_PLTE_THRU_02
10
0
20
0
0
INSERT
2
DRIL_HOLE_0
8
DRIL_PLTE_THRU_03
10
0
20
0
0
INSERT
2
DRIL_HOLE_0
8
DRIL_PLTE_THRU_04
10
0
20
0
0
INSERT
2
PAD_0
8
PADS_INNER
10
0
20
0
0
INSERT
2
PAD_7
8
PADS_BOT
10
0
20
0
0
INSERT
2
PAD_0
8
PADS_TOP
10
0
20
0
0
ENDBLK
0
BLOCK
2
STK_BOT_14
8
0
10
0
20
0
3
STK_BOT_14
70
64
0
INSERT
2
DRIL_HOLE_0
8
DRIL_PLTE_THRU_01
10
0
20
0
0
INSERT
2
DRIL_HOLE_0
8
DRIL_PLTE_THRU_02
10
0
20
0
0
INSERT
2
DRIL_HOLE_0
8
DRIL_PLTE_THRU_03
10
0
20
0
0
INSERT
2
DRIL_HOLE_0
8
DRIL_PLTE_THRU_04
10
0
20
0
0
INSERT
2
PAD_0
8
PADS_INNER
10
0
20
0
0
INSERT
2
PAD_8
8
PADS_BOT
10
0
20
0
0
INSERT
2
PAD_0
8
PADS_TOP
10
0
20
0
0
ENDBLK
0
BLOCK
2
STK_BOT_15
8
0
10
0
20
0
3
STK_BOT_15
70
64
0
INSERT
2
DRIL_HOLE_0
8
DRIL_PLTE_THRU_01
10
0
20
0
0
INSERT
2
DRIL_HOLE_0
8
DRIL_PLTE_THRU_02
10
0
20
0
0
INSERT
2
DRIL_HOLE_0
8
DRIL_PLTE_THRU_03
10
0
20
0
0
INSERT
2
DRIL_HOLE_0
8
DRIL_PLTE_THRU_04
10
0
20
0
0
INSERT
2
PAD_0
8
PADS_INNER
10
0
20
0
0
INSERT
2
PAD_9
8
PADS_BOT
10
0
20
0
0
INSERT
2
PAD_0
8
PADS_TOP
10
0
20
0
0
ENDBLK
0
BLOCK
2
STK_BOT_16
8
0
10
0
20
0
3
STK_BOT_16
70
64
0
INSERT
2
DRIL_HOLE_0$9
8
DRIL_NPLTE_THRU_01
10
0
20
0
0
INSERT
2
DRIL_HOLE_0$9
8
DRIL_NPLTE_THRU_02
10
0
20
0
0
INSERT
2
DRIL_HOLE_0$9
8
DRIL_NPLTE_THRU_03
10
0
20
0
0
INSERT
2
DRIL_HOLE_0$9
8
DRIL_NPLTE_THRU_04
10
0
20
0
0
INSERT
2
PAD_10
8
PADS_INNER
10
0
20
0
0
INSERT
2
PAD_10
8
PADS_BOT
10
0
20
0
0
INSERT
2
PAD_10
8
PADS_TOP
10
0
20
0
0
ENDBLK
0
BLOCK
2
PART_BODY_BOT_14
8
0
10
0
20
0
3
PART_BODY_BOT_14
70
64
0
POLYLINE
8
PART_BOT_COPPER_01
6
TRMIDX_0
66
1
40
0.0254
41
0.0254
70
1
0
VERTEX
8
PART_BOT_COPPER_01
10
-0.3556
20
-0.2667
0
VERTEX
8
PART_BOT_COPPER_01
10
-0.08255
20
0.00635
0
VERTEX
8
PART_BOT_COPPER_01
10
-0.36195
20
0.28575
0
VERTEX
8
PART_BOT_COPPER_01
10
-0.36195
20
-0.254
0
VERTEX
8
PART_BOT_COPPER_01
10
-0.3556
20
-0.254
0
SEQEND
0
INSERT
2
SMOOTH_0$0254
8
PART_BOT_COPPER_01
10
-0.3556
20
-0.2667
0
INSERT
2
SMOOTH_0$0254
8
PART_BOT_COPPER_01
10
-0.08255
20
0.00635
0
INSERT
2
SMOOTH_0$0254
8
PART_BOT_COPPER_01
10
-0.36195
20
0.28575
0
INSERT
2
SMOOTH_0$0254
8
PART_BOT_COPPER_01
10
-0.36195
20
-0.254
0
INSERT
2
SMOOTH_0$0254
8
PART_BOT_COPPER_01
10
-0.3556
20
-0.254
0
POLYLINE
8
PART_BOT_COPPER_01
6
TRMIDX_0
66
1
40
0.0254
41
0.0254
70
1
0
VERTEX
8
PART_BOT_COPPER_01
10
-0.3048
20
-0.1651
0
VERTEX
8
PART_BOT_COPPER_01
10
-0.1397
20
0
0
VERTEX
8
PART_BOT_COPPER_01
10
-0.31115
20
0.17145
0
VERTEX
8
PART_BOT_COPPER_01
10
-0.31115
20
-0.1524
0
VERTEX
8
PART_BOT_COPPER_01
10
-0.3048
20
-0.1524
0
SEQEND
0
INSERT
2
SMOOTH_0$0254
8
PART_BOT_COPPER_01
10
-0.3048
20
-0.1651
0
INSERT
2
SMOOTH_0$0254
8
PART_BOT_COPPER_01
10
-0.1397
20
0
0
INSERT
2
SMOOTH_0$0254
8
PART_BOT_COPPER_01
10
-0.31115
20
0.17145
0
INSERT
2
SMOOTH_0$0254
8
PART_BOT_COPPER_01
10
-0.31115
20
-0.1524
0
INSERT
2
SMOOTH_0$0254
8
PART_BOT_COPPER_01
10
-0.3048
20
-0.1524
0
POLYLINE
8
PART_BOT_COPPER_01
6
TRMIDX_0
66
1
40
0.0508
41
0.0508
0
VERTEX
8
PART_BOT_COPPER_01
10
-0.1397
20
-0.0127
0
VERTEX
8
PART_BOT_COPPER_01
10
-0.3302
20
-0.0127
0
SEQEND
0
INSERT
2
SMOOTH_0$0508
8
PART_BOT_COPPER_01
10
-0.1397
20
-0.0127
0
INSERT
2
SMOOTH_0$0508
8
PART_BOT_COPPER_01
10
-0.3302
20
-0.0127
0
POLYLINE
8
PART_BOT_COPPER_01
6
TRMIDX_0
66
1
40
0.0508
41
0.0508
0
VERTEX
8
PART_BOT_COPPER_01
10
-0.2032
20
-0.0635
0
VERTEX
8
PART_BOT_COPPER_01
10
-0.3937
20
-0.0635
0
SEQEND
0
INSERT
2
SMOOTH_0$0508
8
PART_BOT_COPPER_01
10
-0.2032
20
-0.0635
0
INSERT
2
SMOOTH_0$0508
8
PART_BOT_COPPER_01
10
-0.3937
20
-0.0635
0
POLYLINE
8
PART_BOT_COPPER_01
6
TRMIDX_0
66
1
40
0.0508
41
0.0508
0
VERTEX
8
PART_BOT_COPPER_01
10
-0.1651
20
-0.0381
0
VERTEX
8
PART_BOT_COPPER_01
10
-0.3556
20
-0.0381
0
SEQEND
0
INSERT
2
SMOOTH_0$0508
8
PART_BOT_COPPER_01
10
-0.1651
20
-0.0381
0
INSERT
2
SMOOTH_0$0508
8
PART_BOT_COPPER_01
10
-0.3556
20
-0.0381
0
POLYLINE
8
PART_BOT_COPPER_01
6
TRMIDX_0
66
1
40
0.0508
41
0.0508
0
VERTEX
8
PART_BOT_COPPER_01
10
-0.2286
20
-0.1016
0
VERTEX
8
PART_BOT_COPPER_01
10
-0.4191
20
-0.1016
0
SEQEND
0
INSERT
2
SMOOTH_0$0508
8
PART_BOT_COPPER_01
10
-0.2286
20
-0.1016
0
INSERT
2
SMOOTH_0$0508
8
PART_BOT_COPPER_01
10
-0.4191
20
-0.1016
0
POLYLINE
8
PART_BOT_COPPER_01
6
TRMIDX_0
66
1
40
0.0508
41
0.0508
0
VERTEX
8
PART_BOT_COPPER_01
10
-0.2667
20
-0.1397
0
VERTEX
8
PART_BOT_COPPER_01
10
-0.4572
20
-0.1397
0
SEQEND
0
INSERT
2
SMOOTH_0$0508
8
PART_BOT_COPPER_01
10
-0.2667
20
-0.1397
0
INSERT
2
SMOOTH_0$0508
8
PART_BOT_COPPER_01
10
-0.4572
20
-0.1397
0
POLYLINE
8
PART_BOT_COPPER_01
6
TRMIDX_0
66
1
40
0.0508
41
0.0508
0
VERTEX
8
PART_BOT_COPPER_01
10
-0.3048
20
-0.1778
0
VERTEX
8
PART_BOT_COPPER_01
10
-0.4953
20
-0.1778
0
SEQEND
0
INSERT
2
SMOOTH_0$0508
8
PART_BOT_COPPER_01
10
-0.3048
20
-0.1778
0
INSERT
2
SMOOTH_0$0508
8
PART_BOT_COPPER_01
10
-0.4953
20
-0.1778
0
POLYLINE
8
PART_BOT_COPPER_01
6
TRMIDX_0
66
1
40
0.0508
41
0.0508
0
VERTEX
8
PART_BOT_COPPER_01
10
-0.127
20
0.0127
0
VERTEX
8
PART_BOT_COPPER_01
10
-0.3175
20
0.0127
0
SEQEND
0
INSERT
2
SMOOTH_0$0508
8
PART_BOT_COPPER_01
10
-0.127
20
0.0127
0
INSERT
2
SMOOTH_0$0508
8
PART_BOT_COPPER_01
10
-0.3175
20
0.0127
0
POLYLINE
8
PART_BOT_COPPER_01
6
TRMIDX_0
66
1
40
0.0508
41
0.0508
0
VERTEX
8
PART_BOT_COPPER_01
10
-0.1524
20
0.0381
0
VERTEX
8
PART_BOT_COPPER_01
10
-0.3429
20
0.0381
0
SEQEND
0
INSERT
2
SMOOTH_0$0508
8
PART_BOT_COPPER_01
10
-0.1524
20
0.0381
0
INSERT
2
SMOOTH_0$0508
8
PART_BOT_COPPER_01
10
-0.3429
20
0.0381
0
POLYLINE
8
PART_BOT_COPPER_01
6
TRMIDX_0
66
1
40
0.0508
41
0.0508
0
VERTEX
8
PART_BOT_COPPER_01
10
-0.1905
20
0.0635
0
VERTEX
8
PART_BOT_COPPER_01
10
-0.381
20
0.0635
0
SEQEND
0
INSERT
2
SMOOTH_0$0508
8
PART_BOT_COPPER_01
10
-0.1905
20
0.0635
0
INSERT
2
SMOOTH_0$0508
8
PART_BOT_COPPER_01
10
-0.381
20
0.0635
0
POLYLINE
8
PART_BOT_COPPER_01
6
TRMIDX_0
66
1
40
0.0508
41
0.0508
0
VERTEX
8
PART_BOT_COPPER_01
10
-0.2159
20
0.0889
0
VERTEX
8
PART_BOT_COPPER_01
10
-0.4064
20
0.0889
0
SEQEND
0
INSERT
2
SMOOTH_0$0508
8
PART_BOT_COPPER_01
10
-0.2159
20
0.0889
0
INSERT
2
SMOOTH_0$0508
8
PART_BOT_COPPER_01
10
-0.4064
20
0.0889
0
POLYLINE
8
PART_BOT_COPPER_01
6
TRMIDX_0
66
1
40
0.0508
41
0.0508
0
VERTEX
8
PART_BOT_COPPER_01
10
-0.2413
20
0.1143
0
VERTEX
8
PART_BOT_COPPER_01
10
-0.4318
20
0.1143
0
SEQEND
0
INSERT
2
SMOOTH_0$0508
8
PART_BOT_COPPER_01
10
-0.2413
20
0.1143
0
INSERT
2
SMOOTH_0$0508
8
PART_BOT_COPPER_01
10
-0.4318
20
0.1143
0
POLYLINE
8
PART_BOT_COPPER_01
6
TRMIDX_0
66
1
40
0.0508
41
0.0508
0
VERTEX
8
PART_BOT_COPPER_01
10
-0.2667
20
0.1524
0
VERTEX
8
PART_BOT_COPPER_01
10
-0.4572
20
0.1524
0
SEQEND
0
INSERT
2
SMOOTH_0$0508
8
PART_BOT_COPPER_01
10
-0.2667
20
0.1524
0
INSERT
2
SMOOTH_0$0508
8
PART_BOT_COPPER_01
10
-0.4572
20
0.1524
0
POLYLINE
8
PART_BOT_COPPER_01
6
TRMIDX_0
66
1
40
0.0508
41
0.0508
0
VERTEX
8
PART_BOT_COPPER_01
10
-0.3048
20
0.1905
0
VERTEX
8
PART_BOT_COPPER_01
10
-0.4953
20
0.1905
0
SEQEND
0
INSERT
2
SMOOTH_0$0508
8
PART_BOT_COPPER_01
10
-0.3048
20
0.1905
0
INSERT
2
SMOOTH_0$0508
8
PART_BOT_COPPER_01
10
-0.4953
20
0.1905
0
POLYLINE
8
PART_BOT_COPPER_01
6
TRMIDX_1
66
1
40
0.0254
41
0.0254
70
1
0
VERTEX
8
PART_BOT_COPPER_01
10
0.3683
20
0.2794
0
VERTEX
8
PART_BOT_COPPER_01
10
0.09525
20
0.00635
0
VERTEX
8
PART_BOT_COPPER_01
10
0.37465
20
-0.27305
0
VERTEX
8
PART_BOT_COPPER_01
10
0.37465
20
0.2667
0
VERTEX
8
PART_BOT_COPPER_01
10
0.3683
20
0.2667
0
SEQEND
0
INSERT
2
SMOOTH_0$0254
8
PART_BOT_COPPER_01
10
0.3683
20
0.2794
0
INSERT
2
SMOOTH_0$0254
8
PART_BOT_COPPER_01
10
0.09525
20
0.00635
0
INSERT
2
SMOOTH_0$0254
8
PART_BOT_COPPER_01
10
0.37465
20
-0.27305
0
INSERT
2
SMOOTH_0$0254
8
PART_BOT_COPPER_01
10
0.37465
20
0.2667
0
INSERT
2
SMOOTH_0$0254
8
PART_BOT_COPPER_01
10
0.3683
20
0.2667
0
POLYLINE
8
PART_BOT_COPPER_01
6
TRMIDX_1
66
1
40
0.0254
41
0.0254
70
1
0
VERTEX
8
PART_BOT_COPPER_01
10
0.3175
20
0.1778
0
VERTEX
8
PART_BOT_COPPER_01
10
0.1524
20
0.0127
0
VERTEX
8
PART_BOT_COPPER_01
10
0.32385
20
-0.15875
0
VERTEX
8
PART_BOT_COPPER_01
10
0.32385
20
0.1651
0
VERTEX
8
PART_BOT_COPPER_01
10
0.3175
20
0.1651
0
SEQEND
0
INSERT
2
SMOOTH_0$0254
8
PART_BOT_COPPER_01
10
0.3175
20
0.1778
0
INSERT
2
SMOOTH_0$0254
8
PART_BOT_COPPER_01
10
0.1524
20
0.0127
0
INSERT
2
SMOOTH_0$0254
8
PART_BOT_COPPER_01
10
0.32385
20
-0.15875
0
INSERT
2
SMOOTH_0$0254
8
PART_BOT_COPPER_01
10
0.32385
20
0.1651
0
INSERT
2
SMOOTH_0$0254
8
PART_BOT_COPPER_01
10
0.3175
20
0.1651
0
POLYLINE
8
PART_BOT_COPPER_01
6
TRMIDX_1
66
1
40
0.0508
41
0.0508
0
VERTEX
8
PART_BOT_COPPER_01
10
0.1524
20
0.0254
0
VERTEX
8
PART_BOT_COPPER_01
10
0.3429
20
0.0254
0
SEQEND
0
INSERT
2
SMOOTH_0$0508
8
PART_BOT_COPPER_01
10
0.1524
20
0.0254
0
INSERT
2
SMOOTH_0$0508
8
PART_BOT_COPPER_01
10
0.3429
20
0.0254
0
POLYLINE
8
PART_BOT_COPPER_01
6
TRMIDX_1
66
1
40
0.0508
41
0.0508
0
VERTEX
8
PART_BOT_COPPER_01
10
0.2159
20
0.0762
0
VERTEX
8
PART_BOT_COPPER_01
10
0.4064
20
0.0762
0
SEQEND
0
INSERT
2
SMOOTH_0$0508
8
PART_BOT_COPPER_01
10
0.2159
20
0.0762
0
INSERT
2
SMOOTH_0$0508
8
PART_BOT_COPPER_01
10
0.4064
20
0.0762
0
POLYLINE
8
PART_BOT_COPPER_01
6
TRMIDX_1
66
1
40
0.0508
41
0.0508
0
VERTEX
8
PART_BOT_COPPER_01
10
0.1778
20
0.0508
0
VERTEX
8
PART_BOT_COPPER_01
10
0.3683
20
0.0508
0
SEQEND
0
INSERT
2
SMOOTH_0$0508
8
PART_BOT_COPPER_01
10
0.1778
20
0.0508
0
INSERT
2
SMOOTH_0$0508
8
PART_BOT_COPPER_01
10
0.3683
20
0.0508
0
POLYLINE
8
PART_BOT_COPPER_01
6
TRMIDX_1
66
1
40
0.0508
41
0.0508
0
VERTEX
8
PART_BOT_COPPER_01
10
0.2413
20
0.1143
0
VERTEX
8
PART_BOT_COPPER_01
10
0.4318
20
0.1143
0
SEQEND
0
INSERT
2
SMOOTH_0$0508
8
PART_BOT_COPPER_01
10
0.2413
20
0.1143
0
INSERT
2
SMOOTH_0$0508
8
PART_BOT_COPPER_01
10
0.4318
20
0.1143
0
POLYLINE
8
PART_BOT_COPPER_01
6
TRMIDX_1
66
1
40
0.0508
41
0.0508
0
VERTEX
8
PART_BOT_COPPER_01
10
0.2794
20
0.1524
0
VERTEX
8
PART_BOT_COPPER_01
10
0.4699
20
0.1524
0
SEQEND
0
INSERT
2
SMOOTH_0$0508
8
PART_BOT_COPPER_01
10
0.2794
20
0.1524
0
INSERT
2
SMOOTH_0$0508
8
PART_BOT_COPPER_01
10
0.4699
20
0.1524
0
POLYLINE
8
PART_BOT_COPPER_01
6
TRMIDX_1
66
1
40
0.0508
41
0.0508
0
VERTEX
8
PART_BOT_COPPER_01
10
0.3175
20
0.1905
0
VERTEX
8
PART_BOT_COPPER_01
10
0.508
20
0.1905
0
SEQEND
0
INSERT
2
SMOOTH_0$0508
8
PART_BOT_COPPER_01
10
0.3175
20
0.1905
0
INSERT
2
SMOOTH_0$0508
8
PART_BOT_COPPER_01
10
0.508
20
0.1905
0
POLYLINE
8
PART_BOT_COPPER_01
6
TRMIDX_1
66
1
40
0.0508
41
0.0508
0
VERTEX
8
PART_BOT_COPPER_01
10
0.1397
20
0
0
VERTEX
8
PART_BOT_COPPER_01
10
0.3302
20
0
0
SEQEND
0
INSERT
2
SMOOTH_0$0508
8
PART_BOT_COPPER_01
10
0.1397
20
0
0
INSERT
2
SMOOTH_0$0508
8
PART_BOT_COPPER_01
10
0.3302
20
0
0
POLYLINE
8
PART_BOT_COPPER_01
6
TRMIDX_1
66
1
40
0.0508
41
0.0508
0
VERTEX
8
PART_BOT_COPPER_01
10
0.1651
20
-0.0254
0
VERTEX
8
PART_BOT_COPPER_01
10
0.3556
20
-0.0254
0
SEQEND
0
INSERT
2
SMOOTH_0$0508
8
PART_BOT_COPPER_01
10
0.1651
20
-0.0254
0
INSERT
2
SMOOTH_0$0508
8
PART_BOT_COPPER_01
10
0.3556
20
-0.0254
0
POLYLINE
8
PART_BOT_COPPER_01
6
TRMIDX_1
66
1
40
0.0508
41
0.0508
0
VERTEX
8
PART_BOT_COPPER_01
10
0.2032
20
-0.0508
0
VERTEX
8
PART_BOT_COPPER_01
10
0.3937
20
-0.0508
0
SEQEND
0
INSERT
2
SMOOTH_0$0508
8
PART_BOT_COPPER_01
10
0.2032
20
-0.0508
0
INSERT
2
SMOOTH_0$0508
8
PART_BOT_COPPER_01
10
0.3937
20
-0.0508
0
POLYLINE
8
PART_BOT_COPPER_01
6
TRMIDX_1
66
1
40
0.0508
41
0.0508
0
VERTEX
8
PART_BOT_COPPER_01
10
0.2286
20
-0.0762
0
VERTEX
8
PART_BOT_COPPER_01
10
0.4191
20
-0.0762
0
SEQEND
0
INSERT
2
SMOOTH_0$0508
8
PART_BOT_COPPER_01
10
0.2286
20
-0.0762
0
INSERT
2
SMOOTH_0$0508
8
PART_BOT_COPPER_01
10
0.4191
20
-0.0762
0
POLYLINE
8
PART_BOT_COPPER_01
6
TRMIDX_1
66
1
40
0.0508
41
0.0508
0
VERTEX
8
PART_BOT_COPPER_01
10
0.254
20
-0.1016
0
VERTEX
8
PART_BOT_COPPER_01
10
0.4445
20
-0.1016
0
SEQEND
0
INSERT
2
SMOOTH_0$0508
8
PART_BOT_COPPER_01
10
0.254
20
-0.1016
0
INSERT
2
SMOOTH_0$0508
8
PART_BOT_COPPER_01
10
0.4445
20
-0.1016
0
POLYLINE
8
PART_BOT_COPPER_01
6
TRMIDX_1
66
1
40
0.0508
41
0.0508
0
VERTEX
8
PART_BOT_COPPER_01
10
0.2794
20
-0.1397
0
VERTEX
8
PART_BOT_COPPER_01
10
0.4699
20
-0.1397
0
SEQEND
0
INSERT
2
SMOOTH_0$0508
8
PART_BOT_COPPER_01
10
0.2794
20
-0.1397
0
INSERT
2
SMOOTH_0$0508
8
PART_BOT_COPPER_01
10
0.4699
20
-0.1397
0
POLYLINE
8
PART_BOT_COPPER_01
6
TRMIDX_1
66
1
40
0.0508
41
0.0508
0
VERTEX
8
PART_BOT_COPPER_01
10
0.3175
20
-0.1778
0
VERTEX
8
PART_BOT_COPPER_01
10
0.508
20
-0.1778
0
SEQEND
0
INSERT
2
SMOOTH_0$0508
8
PART_BOT_COPPER_01
10
0.3175
20
-0.1778
0
INSERT
2
SMOOTH_0$0508
8
PART_BOT_COPPER_01
10
0.508
20
-0.1778
0
POLYLINE
8
PART_BOT_2DLINE_00
66
1
40
0.127
41
0.127
70
1
0
VERTEX
8
PART_BOT_2DLINE_00
10
1.143
20
-0.5588
0
VERTEX
8
PART_BOT_2DLINE_00
10
1.143
20
0.5588
0
VERTEX
8
PART_BOT_2DLINE_00
10
-1.143
20
0.5588
0
VERTEX
8
PART_BOT_2DLINE_00
10
-1.143
20
-0.5588
0
SEQEND
0
INSERT
2
SMOOTH_0$127
8
PART_BOT_2DLINE_00
10
1.143
20
-0.5588
0
INSERT
2
SMOOTH_0$127
8
PART_BOT_2DLINE_00
10
1.143
20
0.5588
0
INSERT
2
SMOOTH_0$127
8
PART_BOT_2DLINE_00
10
-1.143
20
0.5588
0
INSERT
2
SMOOTH_0$127
8
PART_BOT_2DLINE_00
10
-1.143
20
-0.5588
0
ENDBLK
0
BLOCK
2
STK_BOT_21
8
0
10
0
20
0
3
STK_BOT_21
70
64
0
INSERT
2
DRIL_HOLE_0
8
DRIL_PLTE_THRU_01
10
0
20
0
0
INSERT
2
DRIL_HOLE_0
8
DRIL_PLTE_THRU_02
10
0
20
0
0
INSERT
2
DRIL_HOLE_0
8
DRIL_PLTE_THRU_03
10
0
20
0
0
INSERT
2
DRIL_HOLE_0
8
DRIL_PLTE_THRU_04
10
0
20
0
0
INSERT
2
PAD_0
8
PADS_INNER
10
0
20
0
0
INSERT
2
PAD_11
8
PADS_BOT
10
0
20
0
50
90
0
INSERT
2
PAD_0
8
PADS_TOP
10
0
20
0
0
ENDBLK
0
BLOCK
2
PART_BODY_BOT_20
8
0
10
0
20
0
3
PART_BODY_BOT_20
70
64
0
POLYLINE
8
PART_BOT_COPPER_01
6
TRMIDX_4
66
1
40
0.0254
41
0.0254
70
1
0
VERTEX
8
PART_BOT_COPPER_01
10
-1.82563
20
-1.225174
0
VERTEX
8
PART_BOT_COPPER_01
10
-1.82563
20
2.575174
0
VERTEX
8
PART_BOT_COPPER_01
10
0.975228
20
2.575174
0
VERTEX
8
PART_BOT_COPPER_01
10
0.975228
20
-0.971174
0
VERTEX
8
PART_BOT_COPPER_01
10
0.721228
20
-1.225174
0
VERTEX
8
PART_BOT_COPPER_01
10
-1.475364
20
-1.225174
0
VERTEX
8
PART_BOT_COPPER_01
10
-1.475364
20
-0.875416
0
VERTEX
8
PART_BOT_COPPER_01
10
0.371978
20
-0.875416
42
0.361008239
0
VERTEX
8
PART_BOT_COPPER_01
10
0.625978
20
-0.621416
0
VERTEX
8
PART_BOT_COPPER_01
10
0.625978
20
1.9704
42
0.4101298895
0
VERTEX
8
PART_BOT_COPPER_01
10
0.371978
20
2.2244
0
VERTEX
8
PART_BOT_COPPER_01
10
-1.224666
20
2.2244
42
0.4525683004
0
VERTEX
8
PART_BOT_COPPER_01
10
-1.478666
20
1.9704
0
VERTEX
8
PART_BOT_COPPER_01
10
-1.478666
20
-1.225174
0
SEQEND
0
INSERT
2
SMOOTH_0$0254
8
PART_BOT_COPPER_01
10
-1.82563
20
-1.225174
0
INSERT
2
SMOOTH_0$0254
8
PART_BOT_COPPER_01
10
-1.82563
20
2.575174
0
INSERT
2
SMOOTH_0$0254
8
PART_BOT_COPPER_01
10
0.975228
20
2.575174
0
INSERT
2
SMOOTH_0$0254
8
PART_BOT_COPPER_01
10
0.975228
20
-0.971174
0
INSERT
2
SMOOTH_0$0254
8
PART_BOT_COPPER_01
10
0.721228
20
-1.225174
0
INSERT
2
SMOOTH_0$0254
8
PART_BOT_COPPER_01
10
-1.475364
20
-1.225174
0
INSERT
2
SMOOTH_0$0254
8
PART_BOT_COPPER_01
10
-1.475364
20
-0.875416
0
INSERT
2
SMOOTH_0$0254
8
PART_BOT_COPPER_01
10
0.371978
20
-0.875416
0
INSERT
2
SMOOTH_0$0254
8
PART_BOT_COPPER_01
10
0.625978
20
-0.621416
0
INSERT
2
SMOOTH_0$0254
8
PART_BOT_COPPER_01
10
0.625978
20
1.9704
0
ENDBLK
0
BLOCK
2
STK_BOT_29
8
0
10
0
20
0
3
STK_BOT_29
70
64
0
INSERT
2
DRIL_HOLE_0
8
DRIL_PLTE_THRU_01
10
0
20
0
0
INSERT
2
DRIL_HOLE_0
8
DRIL_PLTE_THRU_02
10
0
20
0
0
INSERT
2
DRIL_HOLE_0
8
DRIL_PLTE_THRU_03
10
0
20
0
0
INSERT
2
DRIL_HOLE_0
8
DRIL_PLTE_THRU_04
10
0
20
0
0
INSERT
2
PAD_0
8
PADS_INNER
10
0
20
0
0
INSERT
2
PAD_12
8
PADS_BOT
10
0
20
0
50
90
0
INSERT
2
PAD_0
8
PADS_TOP
10
0
20
0
0
ENDBLK
0
BLOCK
2
STK_BOT_30
8
0
10
0
20
0
3
STK_BOT_30
70
64
0
INSERT
2
DRIL_HOLE_0
8
DRIL_PLTE_THRU_01
10
0
20
0
0
INSERT
2
DRIL_HOLE_0
8
DRIL_PLTE_THRU_02
10
0
20
0
0
INSERT
2
DRIL_HOLE_0
8
DRIL_PLTE_THRU_03
10
0
20
0
0
INSERT
2
DRIL_HOLE_0
8
DRIL_PLTE_THRU_04
10
0
20
0
0
INSERT
2
PAD_0
8
PADS_INNER
10
0
20
0
0
INSERT
2
PAD_13
8
PADS_BOT
10
0
20
0
0
INSERT
2
PAD_0
8
PADS_TOP
10
0
20
0
0
ENDBLK
0
BLOCK
2
PART_BODY_BOT_28
8
0
10
0
20
0
3
PART_BODY_BOT_28
70
64
0
POLYLINE
8
PART_BOT_2DLINE_01
66
1
40
0.1016
41
0.1016
70
1
0
VERTEX
8
PART_BOT_2DLINE_01
10
-1.469
20
1.558
0
VERTEX
8
PART_BOT_2DLINE_01
10
4.447
20
1.558
0
VERTEX
8
PART_BOT_2DLINE_01
10
4.447
20
-1.477
0
VERTEX
8
PART_BOT_2DLINE_01
10
-1.469
20
-1.477
0
SEQEND
0
INSERT
2
SMOOTH_0$1016
8
PART_BOT_2DLINE_01
10
-1.469
20
1.558
0
INSERT
2
SMOOTH_0$1016
8
PART_BOT_2DLINE_01
10
4.447
20
1.558
0
INSERT
2
SMOOTH_0$1016
8
PART_BOT_2DLINE_01
10
4.447
20
-1.477
0
INSERT
2
SMOOTH_0$1016
8
PART_BOT_2DLINE_01
10
-1.469
20
-1.477
0
ENDBLK
0
BLOCK
2
STK_BOT_53
8
0
10
0
20
0
3
STK_BOT_53
70
64
0
INSERT
2
DRIL_HOLE_0
8
DRIL_PLTE_THRU_01
10
0
20
0
0
INSERT
2
DRIL_HOLE_0
8
DRIL_PLTE_THRU_02
10
0
20
0
0
INSERT
2
DRIL_HOLE_0
8
DRIL_PLTE_THRU_03
10
0
20
0
0
INSERT
2
DRIL_HOLE_0
8
DRIL_PLTE_THRU_04
10
0
20
0
0
INSERT
2
PAD_0
8
PADS_INNER
10
0
20
0
0
INSERT
2
PAD_14
8
PADS_BOT
10
0
20
0
50
90
0
INSERT
2
PAD_0
8
PADS_TOP
10
0
20
0
0
ENDBLK
0
BLOCK
2
STK_BOT_54
8
0
10
0
20
0
3
STK_BOT_54
70
64
0
INSERT
2
DRIL_HOLE_0$8
8
DRIL_PLTE_THRU_01
10
0
20
0
0
INSERT
2
DRIL_HOLE_0$8
8
DRIL_PLTE_THRU_02
10
0
20
0
0
INSERT
2
DRIL_HOLE_0$8
8
DRIL_PLTE_THRU_03
10
0
20
0
0
INSERT
2
DRIL_HOLE_0$8
8
DRIL_PLTE_THRU_04
10
0
20
0
0
INSERT
2
PAD_15
8
PADS_INNER
10
0
20
0
0
INSERT
2
PAD_15
8
PADS_BOT
10
0
20
0
0
INSERT
2
PAD_15
8
PADS_TOP
10
0
20
0
0
ENDBLK
0
BLOCK
2
STK_BOT_52
8
0
10
0
20
0
3
STK_BOT_52
70
64
0
INSERT
2
DRIL_HOLE_0
8
DRIL_PLTE_THRU_01
10
0
20
0
0
INSERT
2
DRIL_HOLE_0
8
DRIL_PLTE_THRU_02
10
0
20
0
0
INSERT
2
DRIL_HOLE_0
8
DRIL_PLTE_THRU_03
10
0
20
0
0
INSERT
2
DRIL_HOLE_0
8
DRIL_PLTE_THRU_04
10
0
20
0
0
INSERT
2
PAD_0
8
PADS_INNER
10
0
20
0
0
INSERT
2
PAD_16
8
PADS_BOT
10
0
20
0
0
INSERT
2
PAD_0
8
PADS_TOP
10
0
20
0
0
ENDBLK
0
BLOCK
2
PART_BODY_BOT_31
8
0
10
0
20
0
3
PART_BODY_BOT_31
70
64
0
POLYLINE
8
PART_BOT_2DLINE_01
66
1
40
0.1
41
0.1
70
1
0
VERTEX
8
PART_BOT_2DLINE_01
10
-3.66
20
3.175
0
VERTEX
8
PART_BOT_2DLINE_01
10
3.696
20
3.175
0
VERTEX
8
PART_BOT_2DLINE_01
10
3.696
20
-3.212
0
VERTEX
8
PART_BOT_2DLINE_01
10
-3.66
20
-3.212
0
SEQEND
0
INSERT
2
SMOOTH_0$1
8
PART_BOT_2DLINE_01
10
-3.66
20
3.175
0
INSERT
2
SMOOTH_0$1
8
PART_BOT_2DLINE_01
10
3.696
20
3.175
0
INSERT
2
SMOOTH_0$1
8
PART_BOT_2DLINE_01
10
3.696
20
-3.212
0
INSERT
2
SMOOTH_0$1
8
PART_BOT_2DLINE_01
10
-3.66
20
-3.212
0
POLYLINE
8
KEEPOUT_01
6
KEEPOUT_00001000$0
66
1
70
1
0
VERTEX
8
KEEPOUT_01
10
-3.5
20
3
0
VERTEX
8
KEEPOUT_01
10
3.45
20
3
0
VERTEX
8
KEEPOUT_01
10
3.45
20
-3
0
VERTEX
8
KEEPOUT_01
10
-3.5
20
-3
0
SEQEND
0
ENDBLK
0
BLOCK
2
STK_BOT_58
8
0
10
0
20
0
3
STK_BOT_58
70
64
0
INSERT
2
DRIL_HOLE_0
8
DRIL_PLTE_THRU_01
10
0
20
0
0
INSERT
2
DRIL_HOLE_0
8
DRIL_PLTE_THRU_02
10
0
20
0
0
INSERT
2
DRIL_HOLE_0
8
DRIL_PLTE_THRU_03
10
0
20
0
0
INSERT
2
DRIL_HOLE_0
8
DRIL_PLTE_THRU_04
10
0
20
0
0
INSERT
2
PAD_0
8
PADS_INNER
10
0
20
0
0
INSERT
2
PAD_17
8
PADS_BOT
10
0
20
0
50
90
0
INSERT
2
PAD_0
8
PADS_TOP
10
0
20
0
0
ENDBLK
0
BLOCK
2
PART_BODY_BOT_35
8
0
10
0
20
0
3
PART_BODY_BOT_35
70
64
0
POLYLINE
8
PART_BOT_2DLINE_126
66
1
40
0.1
41
0.1
0
VERTEX
8
PART_BOT_2DLINE_126
10
0.249936
20
0.899922
0
VERTEX
8
PART_BOT_2DLINE_126
10
-0.249936
20
0.899922
0
SEQEND
0
INSERT
2
SMOOTH_0$1
8
PART_BOT_2DLINE_126
10
0.249936
20
0.899922
0
INSERT
2
SMOOTH_0$1
8
PART_BOT_2DLINE_126
10
-0.249936
20
0.899922
0
POLYLINE
8
PART_BOT_2DLINE_126
66
1
40
0.1
41
0.1
0
VERTEX
8
PART_BOT_2DLINE_126
10
-1.599946
20
0.9034773333
0
VERTEX
8
PART_BOT_2DLINE_126
10
-1.599946
20
-0.899922
0
VERTEX
8
PART_BOT_2DLINE_126
10
-0.762
20
-0.899922
0
SEQEND
0
INSERT
2
SMOOTH_0$1
8
PART_BOT_2DLINE_126
10
-1.599946
20
0.9034773333
0
INSERT
2
SMOOTH_0$1
8
PART_BOT_2DLINE_126
10
-1.599946
20
-0.899922
0
INSERT
2
SMOOTH_0$1
8
PART_BOT_2DLINE_126
10
-0.762
20
-0.899922
0
POLYLINE
8
PART_BOT_2DLINE_126
66
1
40
0.1
41
0.1
0
VERTEX
8
PART_BOT_2DLINE_126
10
1.5999453333
20
0.9034773333
0
VERTEX
8
PART_BOT_2DLINE_126
10
1.5999453333
20
-0.899922
0
VERTEX
8
PART_BOT_2DLINE_126
10
0.762
20
-0.899922
0
SEQEND
0
INSERT
2
SMOOTH_0$1
8
PART_BOT_2DLINE_126
10
1.5999453333
20
0.9034773333
0
INSERT
2
SMOOTH_0$1
8
PART_BOT_2DLINE_126
10
1.5999453333
20
-0.899922
0
INSERT
2
SMOOTH_0$1
8
PART_BOT_2DLINE_126
10
0.762
20
-0.899922
0
ENDBLK
0
BLOCK
2
STK_BOT_63
8
0
10
0
20
0
3
STK_BOT_63
70
64
0
INSERT
2
DRIL_HOLE_0
8
DRIL_PLTE_THRU_01
10
0
20
0
0
INSERT
2
DRIL_HOLE_0
8
DRIL_PLTE_THRU_02
10
0
20
0
0
INSERT
2
DRIL_HOLE_0
8
DRIL_PLTE_THRU_03
10
0
20
0
0
INSERT
2
DRIL_HOLE_0
8
DRIL_PLTE_THRU_04
10
0
20
0
0
INSERT
2
PAD_0
8
PADS_INNER
10
0
20
0
0
INSERT
2
PAD_18
8
PADS_BOT
10
0
20
0
50
90
0
INSERT
2
PAD_0
8
PADS_TOP
10
0
20
0
0
ENDBLK
0
BLOCK
2
PART_BODY_BOT_36
8
0
10
0
20
0
3
PART_BODY_BOT_36
70
64
0
POLYLINE
8
PART_BOT_2DLINE_01
66
1
40
0.127
41
0.127
70
1
0
VERTEX
8
PART_BOT_2DLINE_01
10
-1.51102
20
-0.5228053333
0
VERTEX
8
PART_BOT_2DLINE_01
10
1.4889986667
20
-0.5228053333
0
VERTEX
8
PART_BOT_2DLINE_01
10
1.4889986667
20
0.545414
0
VERTEX
8
PART_BOT_2DLINE_01
10
-1.51102
20
0.545414
0
SEQEND
0
INSERT
2
SMOOTH_0$127
8
PART_BOT_2DLINE_01
10
-1.51102
20
-0.5228053333
0
INSERT
2
SMOOTH_0$127
8
PART_BOT_2DLINE_01
10
1.4889986667
20
-0.5228053333
0
INSERT
2
SMOOTH_0$127
8
PART_BOT_2DLINE_01
10
1.4889986667
20
0.545414
0
INSERT
2
SMOOTH_0$127
8
PART_BOT_2DLINE_01
10
-1.51102
20
0.545414
0
ENDBLK
0
BLOCK
2
STK_BOT_64
8
0
10
0
20
0
3
STK_BOT_64
70
64
0
INSERT
2
DRIL_HOLE_0
8
DRIL_PLTE_THRU_01
10
0
20
0
0
INSERT
2
DRIL_HOLE_0
8
DRIL_PLTE_THRU_02
10
0
20
0
0
INSERT
2
DRIL_HOLE_0
8
DRIL_PLTE_THRU_03
10
0
20
0
0
INSERT
2
DRIL_HOLE_0
8
DRIL_PLTE_THRU_04
10
0
20
0
0
INSERT
2
PAD_0
8
PADS_INNER
10
0
20
0
0
INSERT
2
PAD_19
8
PADS_BOT
10
0
20
0
0
INSERT
2
PAD_0
8
PADS_TOP
10
0
20
0
0
ENDBLK
0
BLOCK
2
STK_BOT_65
8
0
10
0
20
0
3
STK_BOT_65
70
64
0
INSERT
2
DRIL_HOLE_0
8
DRIL_PLTE_THRU_01
10
0
20
0
0
INSERT
2
DRIL_HOLE_0
8
DRIL_PLTE_THRU_02
10
0
20
0
0
INSERT
2
DRIL_HOLE_0
8
DRIL_PLTE_THRU_03
10
0
20
0
0
INSERT
2
DRIL_HOLE_0
8
DRIL_PLTE_THRU_04
10
0
20
0
0
INSERT
2
PAD_0
8
PADS_INNER
10
0
20
0
0
INSERT
2
PAD_20
8
PADS_BOT
10
0
20
0
50
90
0
INSERT
2
PAD_0
8
PADS_TOP
10
0
20
0
0
ENDBLK
0
BLOCK
2
PART_BODY_BOT_44
8
0
10
0
20
0
3
PART_BODY_BOT_44
70
64
0
POLYLINE
8
PART_BOT_2DLINE_01
66
1
40
0.0254
41
0.0254
39
-1.397
70
1
0
VERTEX
8
PART_BOT_2DLINE_01
10
-0.5500113333
20
-2.2999953333
0
VERTEX
8
PART_BOT_2DLINE_01
10
-0.5500113333
20
0.2999993333
0
VERTEX
8
PART_BOT_2DLINE_01
10
3.3501073333
20
0.2999993333
0
VERTEX
8
PART_BOT_2DLINE_01
10
3.3501073333
20
-2.2999953333
0
SEQEND
0
INSERT
2
SMOOTH_0$0254
8
PART_BOT_2DLINE_01
10
-0.5500113333
20
-2.2999953333
0
INSERT
2
SMOOTH_0$0254
8
PART_BOT_2DLINE_01
10
-0.5500113333
20
0.2999993333
0
INSERT
2
SMOOTH_0$0254
8
PART_BOT_2DLINE_01
10
3.3501073333
20
0.2999993333
0
INSERT
2
SMOOTH_0$0254
8
PART_BOT_2DLINE_01
10
3.3501073333
20
-2.2999953333
0
POLYLINE
8
PART_BOT_2DLINE_126
66
1
40
0.127
41
0.127
39
-1.397
0
VERTEX
8
PART_BOT_2DLINE_126
10
0.8786113333
20
0.4998973333
0
VERTEX
8
PART_BOT_2DLINE_126
10
1.150112
20
0.4998973333
0
SEQEND
0
INSERT
2
SMOOTH_0$127
8
PART_BOT_2DLINE_126
10
0.8786113333
20
0.4998973333
0
INSERT
2
SMOOTH_0$127
8
PART_BOT_2DLINE_126
10
1.150112
20
0.4998973333
0
POLYLINE
8
PART_BOT_2DLINE_126
66
1
40
0.127
41
0.127
39
-1.397
0
VERTEX
8
PART_BOT_2DLINE_126
10
0.8786113333
20
-2.4998933333
0
VERTEX
8
PART_BOT_2DLINE_126
10
0.8786113333
20
0.4998973333
0
SEQEND
0
INSERT
2
SMOOTH_0$127
8
PART_BOT_2DLINE_126
10
0.8786113333
20
-2.4998933333
0
INSERT
2
SMOOTH_0$127
8
PART_BOT_2DLINE_126
10
0.8786113333
20
0.4998973333
0
POLYLINE
8
PART_BOT_2DLINE_126
66
1
40
0.127
41
0.127
39
-1.397
0
VERTEX
8
PART_BOT_2DLINE_126
10
1.94691
20
-2.4998933333
0
VERTEX
8
PART_BOT_2DLINE_126
10
0.8786113333
20
-2.4998933333
0
SEQEND
0
INSERT
2
SMOOTH_0$127
8
PART_BOT_2DLINE_126
10
1.94691
20
-2.4998933333
0
INSERT
2
SMOOTH_0$127
8
PART_BOT_2DLINE_126
10
0.8786113333
20
-2.4998933333
0
POLYLINE
8
PART_BOT_2DLINE_126
66
1
40
0.127
41
0.127
39
-1.397
0
VERTEX
8
PART_BOT_2DLINE_126
10
1.94691
20
0.4998973333
0
VERTEX
8
PART_BOT_2DLINE_126
10
1.94691
20
-2.4998933333
0
SEQEND
0
INSERT
2
SMOOTH_0$127
8
PART_BOT_2DLINE_126
10
1.94691
20
0.4998973333
0
INSERT
2
SMOOTH_0$127
8
PART_BOT_2DLINE_126
10
1.94691
20
-2.4998933333
0
POLYLINE
8
PART_BOT_2DLINE_126
66
1
40
0.127
41
0.127
39
-1.397
0
VERTEX
8
PART_BOT_2DLINE_126
10
1.6500093333
20
0.4998973333
0
VERTEX
8
PART_BOT_2DLINE_126
10
1.94691
20
0.4998973333
0
SEQEND
0
INSERT
2
SMOOTH_0$127
8
PART_BOT_2DLINE_126
10
1.6500093333
20
0.4998973333
0
INSERT
2
SMOOTH_0$127
8
PART_BOT_2DLINE_126
10
1.94691
20
0.4998973333
0
POLYLINE
8
PART_BOT_2DLINE_126
66
1
40
0.127
41
0.127
39
-1.397
0
VERTEX
8
PART_BOT_2DLINE_126
10
1.150112
20
0.4998973333
42
1
0
VERTEX
8
PART_BOT_2DLINE_126
10
1.6500093333
20
0.4998973333
0
SEQEND
0
INSERT
2
SMOOTH_0$127
8
PART_BOT_2DLINE_126
10
1.150112
20
0.4998973333
0
INSERT
2
SMOOTH_0$127
8
PART_BOT_2DLINE_126
10
1.6500093333
20
0.4998973333
0
POLYLINE
8
PART_BOT_2DLINE_120
66
1
40
0.0254
41
0.0254
39
-1.397
70
1
0
VERTEX
8
PART_BOT_2DLINE_120
10
-0.5500113333
20
-2.2999953333
0
VERTEX
8
PART_BOT_2DLINE_120
10
-0.5500113333
20
0.2999993333
0
VERTEX
8
PART_BOT_2DLINE_120
10
3.3501073333
20
0.2999993333
0
VERTEX
8
PART_BOT_2DLINE_120
10
3.3501073333
20
-2.2999953333
0
SEQEND
0
INSERT
2
SMOOTH_0$0254
8
PART_BOT_2DLINE_120
10
-0.5500113333
20
-2.2999953333
0
INSERT
2
SMOOTH_0$0254
8
PART_BOT_2DLINE_120
10
-0.5500113333
20
0.2999993333
0
INSERT
2
SMOOTH_0$0254
8
PART_BOT_2DLINE_120
10
3.3501073333
20
0.2999993333
0
INSERT
2
SMOOTH_0$0254
8
PART_BOT_2DLINE_120
10
3.3501073333
20
-2.2999953333
0
ENDBLK
0
BLOCK
2
STK_BOT_80
8
0
10
0
20
0
3
STK_BOT_80
70
64
0
INSERT
2
DRIL_HOLE_0
8
DRIL_PLTE_THRU_01
10
0
20
0
0
INSERT
2
DRIL_HOLE_0
8
DRIL_PLTE_THRU_02
10
0
20
0
0
INSERT
2
DRIL_HOLE_0
8
DRIL_PLTE_THRU_03
10
0
20
0
0
INSERT
2
DRIL_HOLE_0
8
DRIL_PLTE_THRU_04
10
0
20
0
0
INSERT
2
PAD_0
8
PADS_XR_128
10
0
20
0
0
INSERT
2
PAD_0
8
PADS_INNER
10
0
20
0
0
INSERT
2
PAD_21
8
PADS_XR_121
10
0
20
0
0
INSERT
2
PAD_0
8
PADS_XR_122
10
0
20
0
0
INSERT
2
PAD_22
8
PADS_XR_123
10
0
20
0
0
INSERT
2
PAD_22
8
PADS_BOT
10
0
20
0
0
INSERT
2
PAD_0
8
PADS_TOP
10
0
20
0
0
ENDBLK
0
BLOCK
2
STK_BOT_79
8
0
10
0
20
0
3
STK_BOT_79
70
64
0
INSERT
2
DRIL_HOLE_0
8
DRIL_PLTE_THRU_01
10
0
20
0
0
INSERT
2
DRIL_HOLE_0
8
DRIL_PLTE_THRU_02
10
0
20
0
0
INSERT
2
DRIL_HOLE_0
8
DRIL_PLTE_THRU_03
10
0
20
0
0
INSERT
2
DRIL_HOLE_0
8
DRIL_PLTE_THRU_04
10
0
20
0
0
INSERT
2
PAD_0
8
PADS_XR_128
10
0
20
0
0
INSERT
2
PAD_0
8
PADS_INNER
10
0
20
0
0
INSERT
2
PAD_23
8
PADS_XR_121
10
0
20
0
0
INSERT
2
PAD_0
8
PADS_XR_122
10
0
20
0
0
INSERT
2
PAD_24
8
PADS_XR_123
10
0
20
0
0
INSERT
2
PAD_24
8
PADS_BOT
10
0
20
0
0
INSERT
2
PAD_0
8
PADS_TOP
10
0
20
0
0
ENDBLK
0
BLOCK
2
PART_BODY_BOT_45
8
0
10
0
20
0
3
PART_BODY_BOT_45
70
64
0
POLYLINE
8
PART_BOT_2DLINE_00
66
1
40
0.1016
41
0.1016
39
-0.9
0
VERTEX
8
PART_BOT_2DLINE_00
10
-1.7
20
2
0
VERTEX
8
PART_BOT_2DLINE_00
10
-2
20
1.7
0
SEQEND
0
INSERT
2
SMOOTH_0$1016
8
PART_BOT_2DLINE_00
10
-1.7
20
2
0
INSERT
2
SMOOTH_0$1016
8
PART_BOT_2DLINE_00
10
-2
20
1.7
0
POLYLINE
8
PART_BOT_2DLINE_00
66
1
40
0.1016
41
0.1016
39
-0.9
0
VERTEX
8
PART_BOT_2DLINE_00
10
1.7
20
2
0
VERTEX
8
PART_BOT_2DLINE_00
10
2
20
2
0
VERTEX
8
PART_BOT_2DLINE_00
10
2
20
1.7
0
SEQEND
0
INSERT
2
SMOOTH_0$1016
8
PART_BOT_2DLINE_00
10
1.7
20
2
0
INSERT
2
SMOOTH_0$1016
8
PART_BOT_2DLINE_00
10
2
20
2
0
INSERT
2
SMOOTH_0$1016
8
PART_BOT_2DLINE_00
10
2
20
1.7
0
POLYLINE
8
PART_BOT_2DLINE_00
66
1
40
0.1016
41
0.1016
39
-0.9
0
VERTEX
8
PART_BOT_2DLINE_00
10
2
20
-1.7
0
VERTEX
8
PART_BOT_2DLINE_00
10
2
20
-2
0
VERTEX
8
PART_BOT_2DLINE_00
10
1.7
20
-2
0
SEQEND
0
INSERT
2
SMOOTH_0$1016
8
PART_BOT_2DLINE_00
10
2
20
-1.7
0
INSERT
2
SMOOTH_0$1016
8
PART_BOT_2DLINE_00
10
2
20
-2
0
INSERT
2
SMOOTH_0$1016
8
PART_BOT_2DLINE_00
10
1.7
20
-2
0
POLYLINE
8
PART_BOT_2DLINE_00
66
1
40
0.1016
41
0.1016
39
-0.9
0
VERTEX
8
PART_BOT_2DLINE_00
10
-1.7
20
-2
0
VERTEX
8
PART_BOT_2DLINE_00
10
-2
20
-2
0
VERTEX
8
PART_BOT_2DLINE_00
10
-2
20
-1.7
0
SEQEND
0
INSERT
2
SMOOTH_0$1016
8
PART_BOT_2DLINE_00
10
-1.7
20
-2
0
INSERT
2
SMOOTH_0$1016
8
PART_BOT_2DLINE_00
10
-2
20
-2
0
INSERT
2
SMOOTH_0$1016
8
PART_BOT_2DLINE_00
10
-2
20
-1.7
0
ENDBLK
0
BLOCK
2
STK_BOT_81
8
0
10
0
20
0
3
STK_BOT_81
70
64
0
INSERT
2
DRIL_HOLE_0
8
DRIL_NPLTE_THRU_01
10
0
20
0
0
INSERT
2
DRIL_HOLE_0
8
DRIL_NPLTE_THRU_02
10
0
20
0
0
INSERT
2
DRIL_HOLE_0
8
DRIL_NPLTE_THRU_03
10
0
20
0
0
INSERT
2
DRIL_HOLE_0
8
DRIL_NPLTE_THRU_04
10
0
20
0
0
INSERT
2
PAD_0
8
PADS_INNER
10
0
20
0
0
INSERT
2
PAD_25
8
PADS_BOT
10
0
20
0
0
INSERT
2
PAD_0
8
PADS_TOP
10
0
20
0
0
ENDBLK
0
BLOCK
2
STK_BOT_82
8
0
10
0
20
0
3
STK_BOT_82
70
64
0
INSERT
2
DRIL_HOLE_0
8
DRIL_NPLTE_THRU_01
10
0
20
0
0
INSERT
2
DRIL_HOLE_0
8
DRIL_NPLTE_THRU_02
10
0
20
0
0
INSERT
2
DRIL_HOLE_0
8
DRIL_NPLTE_THRU_03
10
0
20
0
0
INSERT
2
DRIL_HOLE_0
8
DRIL_NPLTE_THRU_04
10
0
20
0
0
INSERT
2
PAD_0
8
PADS_INNER
10
0
20
0
0
INSERT
2
PAD_26
8
PADS_BOT
10
0
20
0
50
90
0
INSERT
2
PAD_0
8
PADS_TOP
10
0
20
0
0
ENDBLK
0
BLOCK
2
STK_BOT_83
8
0
10
0
20
0
3
STK_BOT_83
70
64
0
INSERT
2
DRIL_HOLE_0
8
DRIL_NPLTE_THRU_01
10
0
20
0
0
INSERT
2
DRIL_HOLE_0
8
DRIL_NPLTE_THRU_02
10
0
20
0
0
INSERT
2
DRIL_HOLE_0
8
DRIL_NPLTE_THRU_03
10
0
20
0
0
INSERT
2
DRIL_HOLE_0
8
DRIL_NPLTE_THRU_04
10
0
20
0
0
INSERT
2
PAD_0
8
PADS_INNER
10
0
20
0
0
INSERT
2
PAD_27
8
PADS_BOT
10
0
20
0
50
90
0
INSERT
2
PAD_0
8
PADS_TOP
10
0
20
0
0
ENDBLK
0
BLOCK
2
STK_BOT_84
8
0
10
0
20
0
3
STK_BOT_84
70
64
0
INSERT
2
DRIL_HOLE_0
8
DRIL_NPLTE_THRU_01
10
0
20
0
0
INSERT
2
DRIL_HOLE_0
8
DRIL_NPLTE_THRU_02
10
0
20
0
0
INSERT
2
DRIL_HOLE_0
8
DRIL_NPLTE_THRU_03
10
0
20
0
0
INSERT
2
DRIL_HOLE_0
8
DRIL_NPLTE_THRU_04
10
0
20
0
0
INSERT
2
PAD_0
8
PADS_INNER
10
0
20
0
0
INSERT
2
PAD_28
8
PADS_BOT
10
0
20
0
0
INSERT
2
PAD_0
8
PADS_TOP
10
0
20
0
0
ENDBLK
0
BLOCK
2
PART_BODY_BOT_46
8
0
10
0
20
0
3
PART_BODY_BOT_46
70
64
0
POLYLINE
8
PART_BOT_2DLINE_116
66
1
40
0.127
41
0.127
0
VERTEX
8
PART_BOT_2DLINE_116
10
10.9500033333
20
1.570952
0
VERTEX
8
PART_BOT_2DLINE_116
10
10.9500213333
20
-3.1650373333
0
VERTEX
8
PART_BOT_2DLINE_116
10
9.7790333333
20
-3.1650386667
0
SEQEND
0
INSERT
2
SMOOTH_0$127
8
PART_BOT_2DLINE_116
10
10.9500033333
20
1.570952
0
INSERT
2
SMOOTH_0$127
8
PART_BOT_2DLINE_116
10
10.9500213333
20
-3.1650373333
0
INSERT
2
SMOOTH_0$127
8
PART_BOT_2DLINE_116
10
9.7790333333
20
-3.1650386667
0
POLYLINE
8
PART_BOT_2DLINE_116
66
1
40
0.127
41
0.127
0
VERTEX
8
PART_BOT_2DLINE_116
10
-10.9499673333
20
1.570952
0
VERTEX
8
PART_BOT_2DLINE_116
10
-10.9499673333
20
-3.1650193333
0
VERTEX
8
PART_BOT_2DLINE_116
10
-9.748984
20
-3.1650193333
0
SEQEND
0
INSERT
2
SMOOTH_0$127
8
PART_BOT_2DLINE_116
10
-10.9499673333
20
1.570952
0
INSERT
2
SMOOTH_0$127
8
PART_BOT_2DLINE_116
10
-10.9499673333
20
-3.1650193333
0
INSERT
2
SMOOTH_0$127
8
PART_BOT_2DLINE_116
10
-9.748984
20
-3.1650193333
0
POLYLINE
8
PART_BOT_2DLINE_126
66
1
40
0.1
41
0.1
70
1
0
VERTEX
8
PART_BOT_2DLINE_126
10
-9.3
20
2.7
0
VERTEX
8
PART_BOT_2DLINE_126
10
8.8
20
2.7
0
VERTEX
8
PART_BOT_2DLINE_126
10
8.8
20
-2.7
0
VERTEX
8
PART_BOT_2DLINE_126
10
-9.3
20
-2.7
0
SEQEND
0
INSERT
2
SMOOTH_0$1
8
PART_BOT_2DLINE_126
10
-9.3
20
2.7
0
INSERT
2
SMOOTH_0$1
8
PART_BOT_2DLINE_126
10
8.8
20
2.7
0
INSERT
2
SMOOTH_0$1
8
PART_BOT_2DLINE_126
10
8.8
20
-2.7
0
INSERT
2
SMOOTH_0$1
8
PART_BOT_2DLINE_126
10
-9.3
20
-2.7
0
ENDBLK
0
BLOCK
2
STK_BOT_86
8
0
10
0
20
0
3
STK_BOT_86
70
64
0
INSERT
2
DRIL_HOLE_1$1999973333
8
DRIL_NPLTE_THRU_01
10
0
20
0
0
INSERT
2
DRIL_HOLE_1$1999973333
8
DRIL_NPLTE_THRU_02
10
0
20
0
0
INSERT
2
DRIL_HOLE_1$1999973333
8
DRIL_NPLTE_THRU_03
10
0
20
0
0
INSERT
2
DRIL_HOLE_1$1999973333
8
DRIL_NPLTE_THRU_04
10
0
20
0
0
INSERT
2
PAD_29
8
PADS_INNER
10
0
20
0
0
INSERT
2
PAD_29
8
PADS_BOT
10
0
20
0
0
INSERT
2
PAD_29
8
PADS_TOP
10
0
20
0
0
ENDBLK
0
BLOCK
2
STK_BOT_87
8
0
10
0
20
0
3
STK_BOT_87
70
64
0
INSERT
2
DRIL_HOLE_1$699996
8
DRIL_NPLTE_THRU_01
10
0
20
0
0
INSERT
2
DRIL_HOLE_1$699996
8
DRIL_NPLTE_THRU_02
10
0
20
0
0
INSERT
2
DRIL_HOLE_1$699996
8
DRIL_NPLTE_THRU_03
10
0
20
0
0
INSERT
2
DRIL_HOLE_1$699996
8
DRIL_NPLTE_THRU_04
10
0
20
0
0
INSERT
2
PAD_30
8
PADS_INNER
10
0
20
0
0
INSERT
2
PAD_30
8
PADS_BOT
10
0
20
0
0
INSERT
2
PAD_30
8
PADS_TOP
10
0
20
0
0
ENDBLK
0
BLOCK
2
STK_BOT_88
8
0
10
0
20
0
3
STK_BOT_88
70
64
0
INSERT
2
DRIL_HOLE_0
8
DRIL_PLTE_THRU_01
10
0
20
0
0
INSERT
2
DRIL_HOLE_0
8
DRIL_PLTE_THRU_02
10
0
20
0
0
INSERT
2
DRIL_HOLE_0
8
DRIL_PLTE_THRU_03
10
0
20
0
0
INSERT
2
DRIL_HOLE_0
8
DRIL_PLTE_THRU_04
10
0
20
0
0
INSERT
2
PAD_0
8
PADS_INNER
10
0
20
0
0
INSERT
2
PAD_31
8
PADS_BOT
10
0
20
0
50
90
0
INSERT
2
PAD_0
8
PADS_TOP
10
0
20
0
0
ENDBLK
0
BLOCK
2
STK_BOT_85
8
0
10
0
20
0
3
STK_BOT_85
70
64
0
INSERT
2
DRIL_HOLE_0
8
DRIL_PLTE_THRU_01
10
0
20
0
0
INSERT
2
DRIL_HOLE_0
8
DRIL_PLTE_THRU_02
10
0
20
0
0
INSERT
2
DRIL_HOLE_0
8
DRIL_PLTE_THRU_03
10
0
20
0
0
INSERT
2
DRIL_HOLE_0
8
DRIL_PLTE_THRU_04
10
0
20
0
0
INSERT
2
PAD_0
8
PADS_INNER
10
0
20
0
0
INSERT
2
PAD_32
8
PADS_BOT
10
0
20
0
50
90
0
INSERT
2
PAD_0
8
PADS_TOP
10
0
20
0
0
ENDBLK
0
BLOCK
2
PART_BODY_BOT_50
8
0
10
0
20
0
3
PART_BODY_BOT_50
70
64
0
POLYLINE
8
PART_BOT_2DLINE_126
66
1
40
0.254
41
0.254
70
1
0
VERTEX
8
PART_BOT_2DLINE_126
10
-1.6570953333
20
-4.132072
42
1
0
VERTEX
8
PART_BOT_2DLINE_126
10
-2.1645873333
20
-4.132072
42
1
0
SEQEND
0
POLYLINE
8
PART_BOT_2DLINE_126
66
1
40
0.254
41
0.254
0
VERTEX
8
PART_BOT_2DLINE_126
10
2.54
20
-2.032
0
VERTEX
8
PART_BOT_2DLINE_126
10
2.54
20
2.032
0
SEQEND
0
INSERT
2
SMOOTH_0$254
8
PART_BOT_2DLINE_126
10
2.54
20
-2.032
0
INSERT
2
SMOOTH_0$254
8
PART_BOT_2DLINE_126
10
2.54
20
2.032
0
POLYLINE
8
PART_BOT_2DLINE_126
66
1
40
0.254
41
0.254
0
VERTEX
8
PART_BOT_2DLINE_126
10
-2.54
20
-2.032
0
VERTEX
8
PART_BOT_2DLINE_126
10
-2.54
20
-0.4572
0
VERTEX
8
PART_BOT_2DLINE_126
10
-1.8565113333
20
-0.4572
0
VERTEX
8
PART_BOT_2DLINE_126
10
-1.8565113333
20
0.4572
0
VERTEX
8
PART_BOT_2DLINE_126
10
-2.54
20
0.4572
0
VERTEX
8
PART_BOT_2DLINE_126
10
-2.54
20
2.032
0
SEQEND
0
INSERT
2
SMOOTH_0$254
8
PART_BOT_2DLINE_126
10
-2.54
20
-2.032
0
INSERT
2
SMOOTH_0$254
8
PART_BOT_2DLINE_126
10
-2.54
20
-0.4572
0
INSERT
2
SMOOTH_0$254
8
PART_BOT_2DLINE_126
10
-1.8565113333
20
-0.4572
0
INSERT
2
SMOOTH_0$254
8
PART_BOT_2DLINE_126
10
-1.8565113333
20
0.4572
0
INSERT
2
SMOOTH_0$254
8
PART_BOT_2DLINE_126
10
-2.54
20
0.4572
0
INSERT
2
SMOOTH_0$254
8
PART_BOT_2DLINE_126
10
-2.54
20
2.032
0
POLYLINE
8
PART_BOT_2DLINE_118
66
1
40
0.0254
41
0.0254
70
1
0
VERTEX
8
PART_BOT_2DLINE_118
10
-2.54
20
-3.0988
0
VERTEX
8
PART_BOT_2DLINE_118
10
-2.54
20
3.0988
0
VERTEX
8
PART_BOT_2DLINE_118
10
2.54
20
3.0988
0
VERTEX
8
PART_BOT_2DLINE_118
10
2.54
20
-3.0988
0
SEQEND
0
INSERT
2
SMOOTH_0$0254
8
PART_BOT_2DLINE_118
10
-2.54
20
-3.0988
0
INSERT
2
SMOOTH_0$0254
8
PART_BOT_2DLINE_118
10
-2.54
20
3.0988
0
INSERT
2
SMOOTH_0$0254
8
PART_BOT_2DLINE_118
10
2.54
20
3.0988
0
INSERT
2
SMOOTH_0$0254
8
PART_BOT_2DLINE_118
10
2.54
20
-3.0988
0
ENDBLK
0
BLOCK
2
STK_BOT_95
8
0
10
0
20
0
3
STK_BOT_95
70
64
0
INSERT
2
DRIL_HOLE_0
8
DRIL_PLTE_THRU_01
10
0
20
0
0
INSERT
2
DRIL_HOLE_0
8
DRIL_PLTE_THRU_02
10
0
20
0
0
INSERT
2
DRIL_HOLE_0
8
DRIL_PLTE_THRU_03
10
0
20
0
0
INSERT
2
DRIL_HOLE_0
8
DRIL_PLTE_THRU_04
10
0
20
0
0
INSERT
2
PAD_0
8
PADS_INNER
10
0
20
0
0
INSERT
2
PAD_33
8
PADS_BOT
10
0
20
0
50
90
0
INSERT
2
PAD_0
8
PADS_TOP
10
0
20
0
0
ENDBLK
0
BLOCK
2
PART_BODY_BOT_58
8
0
10
0
20
0
3
PART_BODY_BOT_58
70
64
0
POLYLINE
8
PART_BOT_2DLINE_01
66
1
40
0.127
41
0.127
0
VERTEX
8
PART_BOT_2DLINE_01
10
10.9500033333
20
1.570952
0
VERTEX
8
PART_BOT_2DLINE_01
10
10.9500213333
20
-3.1650373333
0
VERTEX
8
PART_BOT_2DLINE_01
10
9.7790333333
20
-3.1650386667
0
SEQEND
0
INSERT
2
SMOOTH_0$127
8
PART_BOT_2DLINE_01
10
10.9500033333
20
1.570952
0
INSERT
2
SMOOTH_0$127
8
PART_BOT_2DLINE_01
10
10.9500213333
20
-3.1650373333
0
INSERT
2
SMOOTH_0$127
8
PART_BOT_2DLINE_01
10
9.7790333333
20
-3.1650386667
0
POLYLINE
8
PART_BOT_2DLINE_01
66
1
40
0.127
41
0.127
0
VERTEX
8
PART_BOT_2DLINE_01
10
-10.9499673333
20
1.570952
0
VERTEX
8
PART_BOT_2DLINE_01
10
-10.9499673333
20
-3.1650193333
0
VERTEX
8
PART_BOT_2DLINE_01
10
-9.748984
20
-3.1650193333
0
SEQEND
0
INSERT
2
SMOOTH_0$127
8
PART_BOT_2DLINE_01
10
-10.9499673333
20
1.570952
0
INSERT
2
SMOOTH_0$127
8
PART_BOT_2DLINE_01
10
-10.9499673333
20
-3.1650193333
0
INSERT
2
SMOOTH_0$127
8
PART_BOT_2DLINE_01
10
-9.748984
20
-3.1650193333
0
POLYLINE
8
PART_BOT_2DLINE_116
66
1
40
0.127
41
0.127
0
VERTEX
8
PART_BOT_2DLINE_116
10
10.9500033333
20
1.570952
0
VERTEX
8
PART_BOT_2DLINE_116
10
10.9500213333
20
-3.1650373333
0
VERTEX
8
PART_BOT_2DLINE_116
10
9.7790333333
20
-3.1650386667
0
SEQEND
0
INSERT
2
SMOOTH_0$127
8
PART_BOT_2DLINE_116
10
10.9500033333
20
1.570952
0
INSERT
2
SMOOTH_0$127
8
PART_BOT_2DLINE_116
10
10.9500213333
20
-3.1650373333
0
INSERT
2
SMOOTH_0$127
8
PART_BOT_2DLINE_116
10
9.7790333333
20
-3.1650386667
0
POLYLINE
8
PART_BOT_2DLINE_116
66
1
40
0.127
41
0.127
0
VERTEX
8
PART_BOT_2DLINE_116
10
-10.9499673333
20
1.570952
0
VERTEX
8
PART_BOT_2DLINE_116
10
-10.9499673333
20
-3.1650193333
0
VERTEX
8
PART_BOT_2DLINE_116
10
-9.748984
20
-3.1650193333
0
SEQEND
0
INSERT
2
SMOOTH_0$127
8
PART_BOT_2DLINE_116
10
-10.9499673333
20
1.570952
0
INSERT
2
SMOOTH_0$127
8
PART_BOT_2DLINE_116
10
-10.9499673333
20
-3.1650193333
0
INSERT
2
SMOOTH_0$127
8
PART_BOT_2DLINE_116
10
-9.748984
20
-3.1650193333
0
ENDBLK
0
BLOCK
2
STK_BOT_105
8
0
10
0
20
0
3
STK_BOT_105
70
64
0
INSERT
2
DRIL_HOLE_0
8
DRIL_PLTE_THRU_01
10
0
20
0
0
INSERT
2
DRIL_HOLE_0
8
DRIL_PLTE_THRU_02
10
0
20
0
0
INSERT
2
DRIL_HOLE_0
8
DRIL_PLTE_THRU_03
10
0
20
0
0
INSERT
2
DRIL_HOLE_0
8
DRIL_PLTE_THRU_04
10
0
20
0
0
INSERT
2
PAD_0
8
PADS_INNER
10
0
20
0
0
INSERT
2
PAD_34
8
PADS_BOT
10
0
20
0
50
90
0
INSERT
2
PAD_0
8
PADS_TOP
10
0
20
0
0
ENDBLK
0
BLOCK
2
PART_BODY_BOT_53
8
0
10
0
20
0
3
PART_BODY_BOT_53
70
64
0
POLYLINE
8
PART_BOT_2DLINE_01
66
1
40
0.127
41
0.127
70
1
0
VERTEX
8
PART_BOT_2DLINE_01
10
-1.4
20
0.5
0
VERTEX
8
PART_BOT_2DLINE_01
10
1.4
20
0.5
0
VERTEX
8
PART_BOT_2DLINE_01
10
1.4
20
-0.5
0
VERTEX
8
PART_BOT_2DLINE_01
10
-1.4
20
-0.5
42
0.5040414943
0
SEQEND
0
INSERT
2
SMOOTH_0$127
8
PART_BOT_2DLINE_01
10
-1.4
20
0.5
0
INSERT
2
SMOOTH_0$127
8
PART_BOT_2DLINE_01
10
1.4
20
0.5
0
INSERT
2
SMOOTH_0$127
8
PART_BOT_2DLINE_01
10
1.4
20
-0.5
0
INSERT
2
SMOOTH_0$127
8
PART_BOT_2DLINE_01
10
-1.4
20
-0.5
0
ENDBLK
0
BLOCK
2
STK_BOT_100
8
0
10
0
20
0
3
STK_BOT_100
70
64
0
INSERT
2
DRIL_HOLE_0
8
DRIL_NPLTE_THRU_01
10
0
20
0
0
INSERT
2
DRIL_HOLE_0
8
DRIL_NPLTE_THRU_02
10
0
20
0
0
INSERT
2
DRIL_HOLE_0
8
DRIL_NPLTE_THRU_03
10
0
20
0
0
INSERT
2
DRIL_HOLE_0
8
DRIL_NPLTE_THRU_04
10
0
20
0
0
INSERT
2
PAD_0
8
PADS_INNER
10
0
20
0
0
INSERT
2
PAD_35
8
PADS_BOT
10
0
20
0
50
90
0
INSERT
2
PAD_0
8
PADS_TOP
10
0
20
0
0
ENDBLK
0
BLOCK
2
PART_BODY_BOT_128
8
0
10
0
20
0
3
PART_BODY_BOT_128
70
64
0
ENDBLK
0
BLOCK
2
STK_BOT_231
8
0
10
0
20
0
3
STK_BOT_231
70
64
0
INSERT
2
DRIL_HOLE_3$5
8
DRIL_PLTE_THRU_01
10
0
20
0
0
INSERT
2
DRIL_HOLE_3$5
8
DRIL_PLTE_THRU_02
10
0
20
0
0
INSERT
2
DRIL_HOLE_3$5
8
DRIL_PLTE_THRU_03
10
0
20
0
0
INSERT
2
DRIL_HOLE_3$5
8
DRIL_PLTE_THRU_04
10
0
20
0
0
INSERT
2
PAD_36
8
PADS_INNER
10
0
20
0
0
INSERT
2
PAD_37
8
PADS_BOT
10
0
20
0
0
INSERT
2
PAD_37
8
PADS_TOP
10
0
20
0
0
ENDBLK
0
BLOCK
2
SYM_TOP_65
8
0
10
0
20
0
3
SYM_TOP_65
70
64
0
TEXT
8
SYM_NAME
10
0
20
0
40
1.778
1
H2.8MM
41
0.75
0
TEXT
8
SYM_PART_NAME_01
10
-0.3
20
0.21
40
0.889
1
 
41
0.75
7
W0$127R0
0
TEXT
8
SYM_PART_TYPE_01
10
-0.3
20
0.21
40
0.889
1
 
73
2
11
-0.3
21
0.21
41
0.75
7
W0$127R0
0
INSERT
2
PART_BODY_TOP_81
8
0
10
0
20
0
0
INSERT
2
STK_TOP_133
8
0
10
0
20
0
0
TEXT
8
SYM_TERMINAL
10
0
20
-3.048
40
1.778
1
1
0
ENDBLK
0
BLOCK
2
PART_BODY_BOT_86
8
0
10
0
20
0
3
PART_BODY_BOT_86
70
64
0
POLYLINE
8
PART_BOT_COPPER_121
66
1
40
1
41
1
70
1
0
VERTEX
8
PART_BOT_COPPER_121
10
0.5
20
0
42
1
0
VERTEX
8
PART_BOT_COPPER_121
10
-0.5
20
0
42
1
0
SEQEND
0
POLYLINE
8
PART_BOT_CUTOUT_01
66
1
40
0.15
41
0.15
70
1
0
VERTEX
8
PART_BOT_CUTOUT_01
10
1.725
20
0
42
1
0
VERTEX
8
PART_BOT_CUTOUT_01
10
-1.725
20
0
42
1
0
SEQEND
0
ENDBLK
0
BLOCK
2
STK_BOT_152
8
0
10
0
20
0
3
STK_BOT_152
70
64
0
INSERT
2
DRIL_HOLE_0
8
DRIL_PLTE_THRU_01
10
0
20
0
0
INSERT
2
DRIL_HOLE_0
8
DRIL_PLTE_THRU_02
10
0
20
0
0
INSERT
2
DRIL_HOLE_0
8
DRIL_PLTE_THRU_03
10
0
20
0
0
INSERT
2
DRIL_HOLE_0
8
DRIL_PLTE_THRU_04
10
0
20
0
0
INSERT
2
PAD_0
8
PADS_INNER
10
0
20
0
0
INSERT
2
PAD_38
8
PADS_BOT
10
0
20
0
0
INSERT
2
PAD_0
8
PADS_TOP
10
0
20
0
0
ENDBLK
0
BLOCK
2
PART_BODY_BOT_37
8
0
10
0
20
0
3
PART_BODY_BOT_37
70
64
0
POLYLINE
8
PART_BOT_2DLINE_126
66
1
40
0.154
41
0.154
39
-1.1
70
1
0
VERTEX
8
PART_BOT_2DLINE_126
10
-1.1
20
-0.675
0
VERTEX
8
PART_BOT_2DLINE_126
10
1.1
20
-0.675
0
VERTEX
8
PART_BOT_2DLINE_126
10
1.1
20
0.675
0
VERTEX
8
PART_BOT_2DLINE_126
10
-1.1
20
0.675
0
SEQEND
0
INSERT
2
SMOOTH_0$154
8
PART_BOT_2DLINE_126
10
-1.1
20
-0.675
0
INSERT
2
SMOOTH_0$154
8
PART_BOT_2DLINE_126
10
1.1
20
-0.675
0
INSERT
2
SMOOTH_0$154
8
PART_BOT_2DLINE_126
10
1.1
20
0.675
0
INSERT
2
SMOOTH_0$154
8
PART_BOT_2DLINE_126
10
-1.1
20
0.675
0
ENDBLK
0
BLOCK
2
STK_BOT_66
8
0
10
0
20
0
3
STK_BOT_66
70
64
0
INSERT
2
DRIL_HOLE_0
8
DRIL_PLTE_THRU_01
10
0
20
0
0
INSERT
2
DRIL_HOLE_0
8
DRIL_PLTE_THRU_02
10
0
20
0
0
INSERT
2
DRIL_HOLE_0
8
DRIL_PLTE_THRU_03
10
0
20
0
0
INSERT
2
DRIL_HOLE_0
8
DRIL_PLTE_THRU_04
10
0
20
0
0
INSERT
2
PAD_39
8
PADS_XR_123
10
0
20
0
50
90
0
INSERT
2
PAD_0
8
PADS_INNER
10
0
20
0
0
INSERT
2
PAD_40
8
PADS_XR_121
10
0
20
0
50
90
0
INSERT
2
PAD_39
8
PADS_BOT
10
0
20
0
50
90
0
INSERT
2
PAD_0
8
PADS_TOP
10
0
20
0
0
ENDBLK
0
BLOCK
2
PART_BODY_TOP_6
8
0
10
0
20
0
3
PART_BODY_TOP_6
70
64
0
POLYLINE
8
PART_TOP_2DLINE_00
66
1
40
0.0254
41
0.0254
70
1
0
VERTEX
8
PART_TOP_2DLINE_00
10
0.5499093333
20
0.2999993333
0
VERTEX
8
PART_TOP_2DLINE_00
10
0.5499093333
20
-0.2999993333
0
VERTEX
8
PART_TOP_2DLINE_00
10
-0.5499093333
20
-0.2999993333
0
VERTEX
8
PART_TOP_2DLINE_00
10
-0.5499093333
20
0.2999993333
0
SEQEND
0
INSERT
2
SMOOTH_0$0254
8
PART_TOP_2DLINE_00
10
0.5499093333
20
0.2999993333
0
INSERT
2
SMOOTH_0$0254
8
PART_TOP_2DLINE_00
10
0.5499093333
20
-0.2999993333
0
INSERT
2
SMOOTH_0$0254
8
PART_TOP_2DLINE_00
10
-0.5499093333
20
-0.2999993333
0
INSERT
2
SMOOTH_0$0254
8
PART_TOP_2DLINE_00
10
-0.5499093333
20
0.2999993333
0
POLYLINE
8
PART_TOP_2DLINE_00
66
1
40
0.0254
41
0.0254
70
1
0
VERTEX
8
PART_TOP_2DLINE_00
10
0.4750053333
20
0.1750053333
0
VERTEX
8
PART_TOP_2DLINE_00
10
0.4750053333
20
-0.1750053333
0
VERTEX
8
PART_TOP_2DLINE_00
10
-0.4750053333
20
-0.1750053333
0
VERTEX
8
PART_TOP_2DLINE_00
10
-0.4750053333
20
0.1750053333
0
SEQEND
0
INSERT
2
SMOOTH_0$0254
8
PART_TOP_2DLINE_00
10
0.4750053333
20
0.1750053333
0
INSERT
2
SMOOTH_0$0254
8
PART_TOP_2DLINE_00
10
0.4750053333
20
-0.1750053333
0
INSERT
2
SMOOTH_0$0254
8
PART_TOP_2DLINE_00
10
-0.4750053333
20
-0.1750053333
0
INSERT
2
SMOOTH_0$0254
8
PART_TOP_2DLINE_00
10
-0.4750053333
20
0.1750053333
0
POLYLINE
8
PART_TOP_2DLINE_119
66
1
40
0.0254
41
0.0254
70
1
0
VERTEX
8
PART_TOP_2DLINE_119
10
0.4750053333
20
0.1750053333
0
VERTEX
8
PART_TOP_2DLINE_119
10
0.4750053333
20
-0.1750053333
0
VERTEX
8
PART_TOP_2DLINE_119
10
-0.4750053333
20
-0.1750053333
0
VERTEX
8
PART_TOP_2DLINE_119
10
-0.4750053333
20
0.1750053333
0
SEQEND
0
INSERT
2
SMOOTH_0$0254
8
PART_TOP_2DLINE_119
10
0.4750053333
20
0.1750053333
0
INSERT
2
SMOOTH_0$0254
8
PART_TOP_2DLINE_119
10
0.4750053333
20
-0.1750053333
0
INSERT
2
SMOOTH_0$0254
8
PART_TOP_2DLINE_119
10
-0.4750053333
20
-0.1750053333
0
INSERT
2
SMOOTH_0$0254
8
PART_TOP_2DLINE_119
10
-0.4750053333
20
0.1750053333
0
ENDBLK
0
BLOCK
2
STK_TOP_11
8
0
10
0
20
0
3
STK_TOP_11
70
64
0
INSERT
2
DRIL_HOLE_0
8
DRIL_PLTE_THRU_01
10
0
20
0
0
INSERT
2
DRIL_HOLE_0
8
DRIL_PLTE_THRU_02
10
0
20
0
0
INSERT
2
DRIL_HOLE_0
8
DRIL_PLTE_THRU_03
10
0
20
0
0
INSERT
2
DRIL_HOLE_0
8
DRIL_PLTE_THRU_04
10
0
20
0
0
INSERT
2
PAD_0
8
PADS_INNER
10
0
20
0
0
INSERT
2
PAD_0
8
PADS_BOT
10
0
20
0
0
INSERT
2
PAD_6
8
PADS_TOP
10
0
20
0
50
90
0
ENDBLK
0
BLOCK
2
PART_BODY_TOP_7
8
0
10
0
20
0
3
PART_BODY_TOP_7
70
64
0
POLYLINE
8
PART_TOP_2DLINE_01
66
1
40
0.0254
41
0.0254
70
1
0
VERTEX
8
PART_TOP_2DLINE_01
10
-0.4750053333
20
-0.175006
0
VERTEX
8
PART_TOP_2DLINE_01
10
-0.4750053333
20
0.175006
0
VERTEX
8
PART_TOP_2DLINE_01
10
0.4750053333
20
0.175006
0
VERTEX
8
PART_TOP_2DLINE_01
10
0.4750053333
20
-0.175006
0
SEQEND
0
INSERT
2
SMOOTH_0$0254
8
PART_TOP_2DLINE_01
10
-0.4750053333
20
-0.175006
0
INSERT
2
SMOOTH_0$0254
8
PART_TOP_2DLINE_01
10
-0.4750053333
20
0.175006
0
INSERT
2
SMOOTH_0$0254
8
PART_TOP_2DLINE_01
10
0.4750053333
20
0.175006
0
INSERT
2
SMOOTH_0$0254
8
PART_TOP_2DLINE_01
10
0.4750053333
20
-0.175006
0
POLYLINE
8
PART_TOP_2DLINE_01
66
1
40
0.0254
41
0.0254
0
VERTEX
8
PART_TOP_2DLINE_01
10
-0.54991
20
0.2999993333
0
VERTEX
8
PART_TOP_2DLINE_01
10
0.54991
20
0.2999993333
0
SEQEND
0
INSERT
2
SMOOTH_0$0254
8
PART_TOP_2DLINE_01
10
-0.54991
20
0.2999993333
0
INSERT
2
SMOOTH_0$0254
8
PART_TOP_2DLINE_01
10
0.54991
20
0.2999993333
0
POLYLINE
8
PART_TOP_2DLINE_01
66
1
40
0.0254
41
0.0254
0
VERTEX
8
PART_TOP_2DLINE_01
10
0.54991
20
0.2999993333
0
VERTEX
8
PART_TOP_2DLINE_01
10
0.54991
20
-0.2999993333
0
SEQEND
0
INSERT
2
SMOOTH_0$0254
8
PART_TOP_2DLINE_01
10
0.54991
20
0.2999993333
0
INSERT
2
SMOOTH_0$0254
8
PART_TOP_2DLINE_01
10
0.54991
20
-0.2999993333
0
POLYLINE
8
PART_TOP_2DLINE_01
66
1
40
0.0254
41
0.0254
0
VERTEX
8
PART_TOP_2DLINE_01
10
0.54991
20
-0.2999993333
0
VERTEX
8
PART_TOP_2DLINE_01
10
-0.54991
20
-0.2999993333
0
SEQEND
0
INSERT
2
SMOOTH_0$0254
8
PART_TOP_2DLINE_01
10
0.54991
20
-0.2999993333
0
INSERT
2
SMOOTH_0$0254
8
PART_TOP_2DLINE_01
10
-0.54991
20
-0.2999993333
0
POLYLINE
8
PART_TOP_2DLINE_01
66
1
40
0.0254
41
0.0254
0
VERTEX
8
PART_TOP_2DLINE_01
10
-0.54991
20
-0.2999993333
0
VERTEX
8
PART_TOP_2DLINE_01
10
-0.54991
20
0.2999993333
0
SEQEND
0
INSERT
2
SMOOTH_0$0254
8
PART_TOP_2DLINE_01
10
-0.54991
20
-0.2999993333
0
INSERT
2
SMOOTH_0$0254
8
PART_TOP_2DLINE_01
10
-0.54991
20
0.2999993333
0
POLYLINE
8
PART_TOP_2DLINE_120
66
1
40
0.0254
41
0.0254
70
1
0
VERTEX
8
PART_TOP_2DLINE_120
10
-0.4750053333
20
-0.175006
0
VERTEX
8
PART_TOP_2DLINE_120
10
-0.4750053333
20
0.175006
0
VERTEX
8
PART_TOP_2DLINE_120
10
0.4750053333
20
0.175006
0
VERTEX
8
PART_TOP_2DLINE_120
10
0.4750053333
20
-0.175006
0
SEQEND
0
INSERT
2
SMOOTH_0$0254
8
PART_TOP_2DLINE_120
10
-0.4750053333
20
-0.175006
0
INSERT
2
SMOOTH_0$0254
8
PART_TOP_2DLINE_120
10
-0.4750053333
20
0.175006
0
INSERT
2
SMOOTH_0$0254
8
PART_TOP_2DLINE_120
10
0.4750053333
20
0.175006
0
INSERT
2
SMOOTH_0$0254
8
PART_TOP_2DLINE_120
10
0.4750053333
20
-0.175006
0
ENDBLK
0
BLOCK
2
STK_TOP_12
8
0
10
0
20
0
3
STK_TOP_12
70
64
0
INSERT
2
DRIL_HOLE_0
8
DRIL_PLTE_THRU_01
10
0
20
0
0
INSERT
2
DRIL_HOLE_0
8
DRIL_PLTE_THRU_02
10
0
20
0
0
INSERT
2
DRIL_HOLE_0
8
DRIL_PLTE_THRU_03
10
0
20
0
0
INSERT
2
DRIL_HOLE_0
8
DRIL_PLTE_THRU_04
10
0
20
0
0
INSERT
2
PAD_0
8
PADS_INNER
10
0
20
0
0
INSERT
2
PAD_0
8
PADS_BOT
10
0
20
0
50
90
0
INSERT
2
PAD_41
8
PADS_XR_121
10
0
20
0
50
90
0
INSERT
2
PAD_0
8
PADS_XR_122
10
0
20
0
50
90
0
INSERT
2
PAD_6
8
PADS_XR_123
10
0
20
0
50
90
0
INSERT
2
PAD_0
8
PADS_XR_128
10
0
20
0
50
90
0
INSERT
2
PAD_6
8
PADS_TOP
10
0
20
0
50
90
0
ENDBLK
0
BLOCK
2
PART_BODY_TOP_8
8
0
10
0
20
0
3
PART_BODY_TOP_8
70
64
0
POLYLINE
8
PART_TOP_2DLINE_00
66
1
40
0.0254
41
0.0254
70
1
0
VERTEX
8
PART_TOP_2DLINE_00
10
0.5499146667
20
0.300012
0
VERTEX
8
PART_TOP_2DLINE_00
10
0.5499146667
20
-0.300012
0
VERTEX
8
PART_TOP_2DLINE_00
10
-0.5499146667
20
-0.300012
0
VERTEX
8
PART_TOP_2DLINE_00
10
-0.5499146667
20
0.300012
0
SEQEND
0
INSERT
2
SMOOTH_0$0254
8
PART_TOP_2DLINE_00
10
0.5499146667
20
0.300012
0
INSERT
2
SMOOTH_0$0254
8
PART_TOP_2DLINE_00
10
0.5499146667
20
-0.300012
0
INSERT
2
SMOOTH_0$0254
8
PART_TOP_2DLINE_00
10
-0.5499146667
20
-0.300012
0
INSERT
2
SMOOTH_0$0254
8
PART_TOP_2DLINE_00
10
-0.5499146667
20
0.300012
0
POLYLINE
8
PART_TOP_2DLINE_00
66
1
40
0.0254
41
0.0254
70
1
0
VERTEX
8
PART_TOP_2DLINE_00
10
0.4750213333
20
0.1750053333
0
VERTEX
8
PART_TOP_2DLINE_00
10
0.4750213333
20
-0.1750053333
0
VERTEX
8
PART_TOP_2DLINE_00
10
-0.4749813333
20
-0.1750053333
0
VERTEX
8
PART_TOP_2DLINE_00
10
-0.4749813333
20
0.1750053333
0
SEQEND
0
INSERT
2
SMOOTH_0$0254
8
PART_TOP_2DLINE_00
10
0.4750213333
20
0.1750053333
0
INSERT
2
SMOOTH_0$0254
8
PART_TOP_2DLINE_00
10
0.4750213333
20
-0.1750053333
0
INSERT
2
SMOOTH_0$0254
8
PART_TOP_2DLINE_00
10
-0.4749813333
20
-0.1750053333
0
INSERT
2
SMOOTH_0$0254
8
PART_TOP_2DLINE_00
10
-0.4749813333
20
0.1750053333
0
ENDBLK
0
BLOCK
2
STK_TOP_10
8
0
10
0
20
0
3
STK_TOP_10
70
64
0
INSERT
2
DRIL_HOLE_0
8
DRIL_PLTE_THRU_01
10
0
20
0
0
INSERT
2
DRIL_HOLE_0
8
DRIL_PLTE_THRU_02
10
0
20
0
0
INSERT
2
DRIL_HOLE_0
8
DRIL_PLTE_THRU_03
10
0
20
0
0
INSERT
2
DRIL_HOLE_0
8
DRIL_PLTE_THRU_04
10
0
20
0
0
INSERT
2
PAD_0
8
PADS_INNER
10
0
20
0
0
INSERT
2
PAD_0
8
PADS_BOT
10
0
20
0
0
INSERT
2
PAD_6
8
PADS_TOP
10
0
20
0
50
90
0
ENDBLK
0
BLOCK
2
PART_BODY_TOP_9
8
0
10
0
20
0
3
PART_BODY_TOP_9
70
64
0
POLYLINE
8
PART_TOP_2DLINE_00
66
1
40
0.0254
41
0.0254
70
1
0
VERTEX
8
PART_TOP_2DLINE_00
10
0.5499146667
20
0.300012
0
VERTEX
8
PART_TOP_2DLINE_00
10
0.5499146667
20
-0.300012
0
VERTEX
8
PART_TOP_2DLINE_00
10
-0.5499146667
20
-0.300012
0
VERTEX
8
PART_TOP_2DLINE_00
10
-0.5499146667
20
0.300012
0
SEQEND
0
INSERT
2
SMOOTH_0$0254
8
PART_TOP_2DLINE_00
10
0.5499146667
20
0.300012
0
INSERT
2
SMOOTH_0$0254
8
PART_TOP_2DLINE_00
10
0.5499146667
20
-0.300012
0
INSERT
2
SMOOTH_0$0254
8
PART_TOP_2DLINE_00
10
-0.5499146667
20
-0.300012
0
INSERT
2
SMOOTH_0$0254
8
PART_TOP_2DLINE_00
10
-0.5499146667
20
0.300012
0
POLYLINE
8
PART_TOP_2DLINE_00
66
1
40
0.0254
41
0.0254
70
1
0
VERTEX
8
PART_TOP_2DLINE_00
10
0.4750213333
20
0.1750053333
0
VERTEX
8
PART_TOP_2DLINE_00
10
0.4750213333
20
-0.1750053333
0
VERTEX
8
PART_TOP_2DLINE_00
10
-0.4749813333
20
-0.1750053333
0
VERTEX
8
PART_TOP_2DLINE_00
10
-0.4749813333
20
0.1750053333
0
SEQEND
0
INSERT
2
SMOOTH_0$0254
8
PART_TOP_2DLINE_00
10
0.4750213333
20
0.1750053333
0
INSERT
2
SMOOTH_0$0254
8
PART_TOP_2DLINE_00
10
0.4750213333
20
-0.1750053333
0
INSERT
2
SMOOTH_0$0254
8
PART_TOP_2DLINE_00
10
-0.4749813333
20
-0.1750053333
0
INSERT
2
SMOOTH_0$0254
8
PART_TOP_2DLINE_00
10
-0.4749813333
20
0.1750053333
0
ENDBLK
0
BLOCK
2
PART_BODY_TOP_81
8
0
10
0
20
0
3
PART_BODY_TOP_81
70
64
0
ENDBLK
0
BLOCK
2
STK_TOP_133
8
0
10
0
20
0
3
STK_TOP_133
70
64
0
INSERT
2
DRIL_HOLE_2$8
8
DRIL_PLTE_THRU_01
10
0
20
0
0
INSERT
2
DRIL_HOLE_2$8
8
DRIL_PLTE_THRU_02
10
0
20
0
0
INSERT
2
DRIL_HOLE_2$8
8
DRIL_PLTE_THRU_03
10
0
20
0
0
INSERT
2
DRIL_HOLE_2$8
8
DRIL_PLTE_THRU_04
10
0
20
0
0
INSERT
2
PAD_36
8
PADS_INNER
10
0
20
0
0
INSERT
2
PAD_36
8
PADS_BOT
10
0
20
0
0
INSERT
2
PAD_36
8
PADS_TOP
10
0
20
0
0
ENDBLK
999
*** POWERPCB  PCB PARAMETER ***
0
BLOCK
2
PCB_PARAMS
8
0
10
0
20
0
3
PCB_PARAMS
70
64
999
 *  1.Job name           2.Backupfile name       3.CursorType
999
 *  4.TearDropFlag       5.HighlighNetsFlag      6.HatchDisplayFlag
999
 *  7.PadsFlag           8.TracksFlag            9.ViasFlag
999
 * 10.CopperFlag        11.LinesFlag            12.TextFlag
999
 * 13.TopComponentFlag  14.BottomComponentFlag  16.ObjectSnapFlags
0
TEXT
8
PCB_PARAMS
10
0
20
-3.048
40
1.778
1
A:=[vc099]Y10_V1.0_20190909.pcb <> 5 0 1 1 1 1 1 1 1 1 1 1 0 502 0
999
 *  1.RefDesHeight       2.RefDesWidth           3.DefaultWidth
999
 *  4.VGX                5.VGY                   6.OVR
999
 *  7.HatchGrid          8.ObjectSnapRadius
0
TEXT
8
PCB_PARAMS
10
0
20
-6.096
40
1.778
1
B:=2.54 0.254 0.1524 0.075 0.075 0.0762 0.0254 0.01
999
 *  1.ScaleFactor        2.NetAttributeFlags     3.BackupInterval
999
 *  4.WorkingLevel       5.HatchMode             6.HatchDirection
999
 *  7.ConnectionColor    8.BackgroundColor       9.ForegroundColor
999
 * 10.BoardOutlineColor
0
TEXT
8
PCB_PARAMS
10
0
20
-9.144
40
1.778
1
C:=6.4852433205 40010002 20 1 0 0 0 0 12 12
999
 * MitreAngle0 - MitreAngle6
0
TEXT
8
PCB_PARAMS
10
0
20
-12.192
40
1.778
1
D:=324000000 324000000 324000000 324000000 324000000 324000000 162000000
999
 * Hatch & Keepout Parameters
0
TEXT
8
PCB_PARAMS
10
0
20
-15.24
40
1.778
1
E:=0.5 0 0 2.54 0 1
999
 * Fanout Parameters
0
TEXT
8
PCB_PARAMS
10
0
20
-18.288
40
1.778
1
F:=0.01 0.01 6.35 1 2 0 1 1 0 0 1 1 1 1
999
 * Pad Entry Parameters
0
TEXT
8
PCB_PARAMS
10
0
20
-21.336
40
1.778
1
P:= 1 1 1 1
999
 * DFF Parameters
0
TEXT
8
PCB_PARAMS
10
0
20
-24.384
40
1.778
1
Q:=89.9999 3967 114300 114300 114300 5 4 114300 114300 114300 114300 1 114300 1 114300 1 114300 0
0
ENDBLK
0
BLOCK
2
DRIL_SYMBOL_0
8
0
10
0
20
0
3
DRIL_SYMBOL_0
70
64
0
ENDBLK
0
BLOCK
2
DRIL_SYMBOL_0$9
8
0
10
0
20
0
3
DRIL_SYMBOL_0$9
70
64
0
POLYLINE
8
DRIL_SYMBOL
66
1
40
0.0508
41
0.0508
0
VERTEX
8
DRIL_SYMBOL
10
0
20
-0.254
0
VERTEX
8
DRIL_SYMBOL
10
0
20
0.254
0
SEQEND
0
POLYLINE
8
DRIL_SYMBOL
66
1
40
0.0508
41
0.0508
0
VERTEX
8
DRIL_SYMBOL
10
-0.254
20
0
0
VERTEX
8
DRIL_SYMBOL
10
0.254
20
0
0
SEQEND
0
ENDBLK
0
BLOCK
2
DRIL_SYMBOL_0$8
8
0
10
0
20
0
3
DRIL_SYMBOL_0$8
70
64
0
POLYLINE
8
DRIL_SYMBOL
66
1
40
0.0508
41
0.0508
0
VERTEX
8
DRIL_SYMBOL
10
0
20
-0.254
0
VERTEX
8
DRIL_SYMBOL
10
0
20
0.254
0
SEQEND
0
POLYLINE
8
DRIL_SYMBOL
66
1
40
0.0508
41
0.0508
0
VERTEX
8
DRIL_SYMBOL
10
-0.254
20
0
0
VERTEX
8
DRIL_SYMBOL
10
0.254
20
0
0
SEQEND
0
ENDBLK
0
BLOCK
2
DRIL_SYMBOL_1$1999973333
8
0
10
0
20
0
3
DRIL_SYMBOL_1$1999973333
70
64
0
POLYLINE
8
DRIL_SYMBOL
66
1
40
0.0508
41
0.0508
0
VERTEX
8
DRIL_SYMBOL
10
0
20
-0.254
0
VERTEX
8
DRIL_SYMBOL
10
0
20
0.254
0
SEQEND
0
POLYLINE
8
DRIL_SYMBOL
66
1
40
0.0508
41
0.0508
0
VERTEX
8
DRIL_SYMBOL
10
-0.254
20
0
0
VERTEX
8
DRIL_SYMBOL
10
0.254
20
0
0
SEQEND
0
ENDBLK
0
BLOCK
2
DRIL_SYMBOL_1$699996
8
0
10
0
20
0
3
DRIL_SYMBOL_1$699996
70
64
0
POLYLINE
8
DRIL_SYMBOL
66
1
40
0.0508
41
0.0508
0
VERTEX
8
DRIL_SYMBOL
10
0
20
-0.254
0
VERTEX
8
DRIL_SYMBOL
10
0
20
0.254
0
SEQEND
0
POLYLINE
8
DRIL_SYMBOL
66
1
40
0.0508
41
0.0508
0
VERTEX
8
DRIL_SYMBOL
10
-0.254
20
0
0
VERTEX
8
DRIL_SYMBOL
10
0.254
20
0
0
SEQEND
0
ENDBLK
0
BLOCK
2
DRIL_SYMBOL_3$5
8
0
10
0
20
0
3
DRIL_SYMBOL_3$5
70
64
0
POLYLINE
8
DRIL_SYMBOL
66
1
40
0.0508
41
0.0508
0
VERTEX
8
DRIL_SYMBOL
10
0
20
-0.254
0
VERTEX
8
DRIL_SYMBOL
10
0
20
0.254
0
SEQEND
0
POLYLINE
8
DRIL_SYMBOL
66
1
40
0.0508
41
0.0508
0
VERTEX
8
DRIL_SYMBOL
10
-0.254
20
0
0
VERTEX
8
DRIL_SYMBOL
10
0.254
20
0
0
SEQEND
0
ENDBLK
0
BLOCK
2
DRIL_SYMBOL_2$8
8
0
10
0
20
0
3
DRIL_SYMBOL_2$8
70
64
0
POLYLINE
8
DRIL_SYMBOL
66
1
40
0.0508
41
0.0508
0
VERTEX
8
DRIL_SYMBOL
10
0
20
-0.254
0
VERTEX
8
DRIL_SYMBOL
10
0
20
0.254
0
SEQEND
0
POLYLINE
8
DRIL_SYMBOL
66
1
40
0.0508
41
0.0508
0
VERTEX
8
DRIL_SYMBOL
10
-0.254
20
0
0
VERTEX
8
DRIL_SYMBOL
10
0.254
20
0
0
SEQEND
0
ENDBLK
999
*** POWERPCB  SMOOTH CIRCLE ***
0
BLOCK
2
SMOOTH_0$1524
8
0
10
0
20
0
3
SMOOTH_0$1524
70
64
0
POLYLINE
8
0
66
1
40
0.0762
41
0.0762
70
1
0
VERTEX
8
0
10
-0.0381
20
0
42
1
0
VERTEX
8
0
10
0.0381
20
0
42
1
0
SEQEND
0
ENDBLK
0
BLOCK
2
SMOOTH_0$127
8
0
10
0
20
0
3
SMOOTH_0$127
70
64
0
POLYLINE
8
0
66
1
40
0.0635
41
0.0635
70
1
0
VERTEX
8
0
10
-0.03175
20
0
42
1
0
VERTEX
8
0
10
0.03175
20
0
42
1
0
SEQEND
0
ENDBLK
0
BLOCK
2
SMOOTH_0$0254
8
0
10
0
20
0
3
SMOOTH_0$0254
70
64
0
POLYLINE
8
0
66
1
40
0.0127
41
0.0127
70
1
0
VERTEX
8
0
10
-0.00635
20
0
42
1
0
VERTEX
8
0
10
0.00635
20
0
42
1
0
SEQEND
0
ENDBLK
0
BLOCK
2
SMOOTH_0$10008
8
0
10
0
20
0
3
SMOOTH_0$10008
70
64
0
POLYLINE
8
0
66
1
40
0.05004
41
0.05004
70
1
0
VERTEX
8
0
10
-0.02502
20
0
42
1
0
VERTEX
8
0
10
0.02502
20
0
42
1
0
SEQEND
0
ENDBLK
0
BLOCK
2
SMOOTH_0$0508
8
0
10
0
20
0
3
SMOOTH_0$0508
70
64
0
POLYLINE
8
0
66
1
40
0.0254
41
0.0254
70
1
0
VERTEX
8
0
10
-0.0127
20
0
42
1
0
VERTEX
8
0
10
0.0127
20
0
42
1
0
SEQEND
0
ENDBLK
0
BLOCK
2
SMOOTH_0$1016
8
0
10
0
20
0
3
SMOOTH_0$1016
70
64
0
POLYLINE
8
0
66
1
40
0.0508
41
0.0508
70
1
0
VERTEX
8
0
10
-0.0254
20
0
42
1
0
VERTEX
8
0
10
0.0254
20
0
42
1
0
SEQEND
0
ENDBLK
0
BLOCK
2
SMOOTH_0$1
8
0
10
0
20
0
3
SMOOTH_0$1
70
64
0
POLYLINE
8
0
66
1
40
0.05
41
0.05
70
1
0
VERTEX
8
0
10
-0.025
20
0
42
1
0
VERTEX
8
0
10
0.025
20
0
42
1
0
SEQEND
0
ENDBLK
0
BLOCK
2
SMOOTH_0$254
8
0
10
0
20
0
3
SMOOTH_0$254
70
64
0
POLYLINE
8
0
66
1
40
0.127
41
0.127
70
1
0
VERTEX
8
0
10
-0.0635
20
0
42
1
0
VERTEX
8
0
10
0.0635
20
0
42
1
0
SEQEND
0
ENDBLK
0
BLOCK
2
SMOOTH_0$154
8
0
10
0
20
0
3
SMOOTH_0$154
70
64
0
POLYLINE
8
0
66
1
40
0.077
41
0.077
70
1
0
VERTEX
8
0
10
-0.0385
20
0
42
1
0
VERTEX
8
0
10
0.0385
20
0
42
1
0
SEQEND
0
ENDBLK
0
BLOCK
2
PAD_0
8
0
10
0
20
0
3
PAD_0
70
64
0
POLYLINE
8
0
70
1
66
1
0
VERTEX
8
0
10
0
20
0
42
1
0
VERTEX
8
0
10
0
20
0
42
1
0
SEQEND
0
ENDBLK
0
BLOCK
2
PAD_1
8
0
10
0
20
0
3
PAD_1
70
64
0
POLYLINE
8
0
66
1
40
0.5
41
0.5
0
VERTEX
8
0
10
-0.25
20
0
0
VERTEX
8
0
10
0.25
20
0
0
SEQEND
0
ENDBLK
0
BLOCK
2
PAD_2
8
0
10
0
20
0
3
PAD_2
70
64
0
POLYLINE
8
0
66
1
40
0.7874
41
0.7874
0
VERTEX
8
0
10
-0.4826
20
0
0
VERTEX
8
0
10
0.4826
20
0
0
SEQEND
0
ENDBLK
0
BLOCK
2
PAD_3
8
0
10
0
20
0
3
PAD_3
70
64
0
POLYLINE
8
0
66
1
40
0.8
41
0.8
0
VERTEX
8
0
10
-0.48
20
0
0
VERTEX
8
0
10
0.48
20
0
0
SEQEND
0
ENDBLK
0
BLOCK
2
PAD_4
8
0
10
0
20
0
3
PAD_4
70
64
0
POLYLINE
8
0
70
1
66
1
40
0.12
41
0.12
0
VERTEX
8
0
10
0
20
-0.06
42
1
0
VERTEX
8
0
10
0
20
0.06
42
1
0
SEQEND
0
ENDBLK
0
BLOCK
2
PAD_5
8
0
10
0
20
0
3
PAD_5
70
64
0
POLYLINE
8
0
66
1
40
1.15
41
1.15
0
VERTEX
8
0
10
-0.725
20
0
0
VERTEX
8
0
10
0.725
20
0
0
SEQEND
0
ENDBLK
0
BLOCK
2
PAD_6
8
0
10
0
20
0
3
PAD_6
70
64
0
POLYLINE
8
0
66
1
40
0.2499026667
41
0.2499026667
0
VERTEX
8
0
10
-0.149988
20
0
0
VERTEX
8
0
10
0.149988
20
0
0
SEQEND
0
ENDBLK
0
BLOCK
2
PAD_7
8
0
10
0
20
0
3
PAD_7
70
64
0
POLYLINE
8
0
66
1
40
0.699998
41
0.699998
0
VERTEX
8
0
10
-0.799998
20
0
0
VERTEX
8
0
10
0.799998
20
0
0
SEQEND
0
ENDBLK
0
BLOCK
2
PAD_8
8
0
10
0
20
0
3
PAD_8
70
64
0
POLYLINE
8
0
66
1
40
1.3999966667
41
1.3999966667
0
VERTEX
8
0
10
-0.799998
20
0
0
VERTEX
8
0
10
0.799998
20
0
0
SEQEND
0
ENDBLK
0
BLOCK
2
PAD_9
8
0
10
0
20
0
3
PAD_9
70
64
0
POLYLINE
8
0
66
1
40
1.1999973333
41
1.1999973333
0
VERTEX
8
0
10
-1.0999973333
20
0
0
VERTEX
8
0
10
1.0999973333
20
0
0
SEQEND
0
ENDBLK
0
BLOCK
2
PAD_10
8
0
10
0
20
0
3
PAD_10
70
64
0
POLYLINE
8
0
70
1
66
1
40
0.45
41
0.45
0
VERTEX
8
0
10
0
20
-0.225
42
1
0
VERTEX
8
0
10
0
20
0.225
42
1
0
SEQEND
0
ENDBLK
0
BLOCK
2
PAD_11
8
0
10
0
20
0
3
PAD_11
70
64
0
POLYLINE
8
0
66
1
40
0.635
41
0.635
0
VERTEX
8
0
10
-0.3175
20
0
0
VERTEX
8
0
10
0.3175
20
0
0
SEQEND
0
ENDBLK
0
BLOCK
2
PAD_12
8
0
10
0
20
0
3
PAD_12
70
64
0
POLYLINE
8
0
66
1
40
0.4
41
0.4
0
VERTEX
8
0
10
-0.475
20
0
0
VERTEX
8
0
10
0.475
20
0
0
SEQEND
0
ENDBLK
0
BLOCK
2
PAD_13
8
0
10
0
20
0
3
PAD_13
70
64
0
POLYLINE
8
0
66
1
40
0.254
41
0.254
0
VERTEX
8
0
10
-0.127
20
0
0
VERTEX
8
0
10
0.127
20
0
0
SEQEND
0
ENDBLK
0
BLOCK
2
PAD_14
8
0
10
0
20
0
3
PAD_14
70
64
0
POLYLINE
8
0
66
1
40
0.8
41
0.8
0
VERTEX
8
0
10
-1
20
0
0
VERTEX
8
0
10
1
20
0
0
SEQEND
0
ENDBLK
0
BLOCK
2
PAD_15
8
0
10
0
20
0
3
PAD_15
70
64
0
POLYLINE
8
0
70
1
66
1
40
0.4
41
0.4
0
VERTEX
8
0
10
0
20
-0.2
42
1
0
VERTEX
8
0
10
0
20
0.2
42
1
0
SEQEND
0
ENDBLK
0
BLOCK
2
PAD_16
8
0
10
0
20
0
3
PAD_16
70
64
0
POLYLINE
8
0
66
1
40
0.8
41
0.8
0
VERTEX
8
0
10
-0.7
20
0
0
VERTEX
8
0
10
0.7
20
0
0
SEQEND
0
ENDBLK
0
BLOCK
2
PAD_17
8
0
10
0
20
0
3
PAD_17
70
64
0
POLYLINE
8
0
66
1
40
2.5
41
2.5
0
VERTEX
8
0
10
-3
20
0
0
VERTEX
8
0
10
3
20
0
0
SEQEND
0
ENDBLK
0
BLOCK
2
PAD_18
8
0
10
0
20
0
3
PAD_18
70
64
0
POLYLINE
8
0
66
1
40
0.799998
41
0.799998
0
VERTEX
8
0
10
-0.5499986667
20
0
0
VERTEX
8
0
10
0.5499986667
20
0
0
SEQEND
0
ENDBLK
0
BLOCK
2
PAD_19
8
0
10
0
20
0
3
PAD_19
70
64
0
POLYLINE
8
0
66
1
40
0.9906
41
0.9906
0
VERTEX
8
0
10
-0.4953
20
0
0
VERTEX
8
0
10
0.4953
20
0
0
SEQEND
0
ENDBLK
0
BLOCK
2
PAD_20
8
0
10
0
20
0
3
PAD_20
70
64
0
POLYLINE
8
0
66
1
40
0.9906
41
0.9906
0
VERTEX
8
0
10
-0.5999986667
20
0
0
VERTEX
8
0
10
0.5999986667
20
0
0
SEQEND
0
ENDBLK
0
BLOCK
2
PAD_21
8
0
10
0
20
0
3
PAD_21
70
64
0
POLYLINE
8
0
70
1
66
1
40
0.3634993333
41
0.3634993333
0
VERTEX
8
0
10
-0.2499993333
20
-0.1817493333
0
VERTEX
8
0
10
0.2499993333
20
-0.1817493333
42
1
0
VERTEX
8
0
10
0.2499993333
20
0.1817493333
0
VERTEX
8
0
10
-0.2499993333
20
0.1817493333
42
1
0
SEQEND
0
ENDBLK
0
BLOCK
2
PAD_22
8
0
10
0
20
0
3
PAD_22
70
64
0
POLYLINE
8
0
70
1
66
1
40
0.2999993333
41
0.2999993333
0
VERTEX
8
0
10
-0.2499993333
20
-0.1499993333
0
VERTEX
8
0
10
0.2499993333
20
-0.1499993333
42
1
0
VERTEX
8
0
10
0.2499993333
20
0.1499993333
0
VERTEX
8
0
10
-0.2499993333
20
0.1499993333
42
1
0
SEQEND
0
ENDBLK
0
BLOCK
2
PAD_23
8
0
10
0
20
0
3
PAD_23
70
64
0
POLYLINE
8
0
66
1
40
0.7269986667
41
0.7269986667
0
VERTEX
8
0
10
-0.6134986667
20
0
0
VERTEX
8
0
10
0.6134986667
20
0
0
SEQEND
0
ENDBLK
0
BLOCK
2
PAD_24
8
0
10
0
20
0
3
PAD_24
70
64
0
POLYLINE
8
0
66
1
40
0.5999986667
41
0.5999986667
0
VERTEX
8
0
10
-0.5499986667
20
0
0
VERTEX
8
0
10
0.5499986667
20
0
0
SEQEND
0
ENDBLK
0
BLOCK
2
PAD_25
8
0
10
0
20
0
3
PAD_25
70
64
0
POLYLINE
8
0
66
1
40
0.23
41
0.23
0
VERTEX
8
0
10
-0.375
20
0
0
VERTEX
8
0
10
0.375
20
0
0
SEQEND
0
ENDBLK
0
BLOCK
2
PAD_26
8
0
10
0
20
0
3
PAD_26
70
64
0
POLYLINE
8
0
66
1
40
0.23
41
0.23
0
VERTEX
8
0
10
-0.45
20
0
0
VERTEX
8
0
10
0.3
20
0
0
SEQEND
0
ENDBLK
0
BLOCK
2
PAD_27
8
0
10
0
20
0
3
PAD_27
70
64
0
POLYLINE
8
0
66
1
40
0.23
41
0.23
0
VERTEX
8
0
10
-0.3
20
0
0
VERTEX
8
0
10
0.45
20
0
0
SEQEND
0
ENDBLK
0
BLOCK
2
PAD_28
8
0
10
0
20
0
3
PAD_28
70
64
0
POLYLINE
8
0
66
1
40
2.2
41
2.2
0
VERTEX
8
0
10
-1.1
20
0
0
VERTEX
8
0
10
1.1
20
0
0
SEQEND
0
ENDBLK
0
BLOCK
2
PAD_29
8
0
10
0
20
0
3
PAD_29
70
64
0
POLYLINE
8
0
70
1
66
1
40
0.5999986667
41
0.5999986667
0
VERTEX
8
0
10
0
20
-0.2999993333
42
1
0
VERTEX
8
0
10
0
20
0.2999993333
42
1
0
SEQEND
0
ENDBLK
0
BLOCK
2
PAD_30
8
0
10
0
20
0
3
PAD_30
70
64
0
POLYLINE
8
0
70
1
66
1
40
0.8499973333
41
0.8499973333
0
VERTEX
8
0
10
0
20
-0.4249986667
42
1
0
VERTEX
8
0
10
0
20
0.4249986667
42
1
0
SEQEND
0
ENDBLK
0
BLOCK
2
PAD_31
8
0
10
0
20
0
3
PAD_31
70
64
0
POLYLINE
8
0
66
1
40
1.2000126667
41
1.2000126667
0
VERTEX
8
0
10
-1.4000033333
20
0
0
VERTEX
8
0
10
1.4000033333
20
0
0
SEQEND
0
ENDBLK
0
BLOCK
2
PAD_32
8
0
10
0
20
0
3
PAD_32
70
64
0
POLYLINE
8
0
66
1
40
0.3
41
0.3
0
VERTEX
8
0
10
-0.775
20
0
0
VERTEX
8
0
10
0.775
20
0
0
SEQEND
0
ENDBLK
0
BLOCK
2
PAD_33
8
0
10
0
20
0
3
PAD_33
70
64
0
POLYLINE
8
0
66
1
40
0.635
41
0.635
0
VERTEX
8
0
10
-0.889
20
0
0
VERTEX
8
0
10
0.889
20
0
0
SEQEND
0
ENDBLK
0
BLOCK
2
PAD_34
8
0
10
0
20
0
3
PAD_34
70
64
0
POLYLINE
8
0
66
1
40
0.299976
41
0.299976
0
VERTEX
8
0
10
-0.7999433333
20
0
0
VERTEX
8
0
10
0.7999433333
20
0
0
SEQEND
0
ENDBLK
0
BLOCK
2
PAD_35
8
0
10
0
20
0
3
PAD_35
70
64
0
POLYLINE
8
0
66
1
40
0.35
41
0.35
0
VERTEX
8
0
10
-0.45
20
0
0
VERTEX
8
0
10
0.45
20
0
0
SEQEND
0
ENDBLK
0
BLOCK
2
PAD_36
8
0
10
0
20
0
3
PAD_36
70
64
0
POLYLINE
8
0
70
1
66
1
40
2.25
41
2.25
0
VERTEX
8
0
10
0
20
-1.125
42
1
0
VERTEX
8
0
10
0
20
1.125
42
1
0
SEQEND
0
ENDBLK
0
BLOCK
2
PAD_37
8
0
10
0
20
0
3
PAD_37
70
64
0
POLYLINE
8
0
70
1
66
1
40
3
41
3
0
VERTEX
8
0
10
0
20
-1.5
42
1
0
VERTEX
8
0
10
0
20
1.5
42
1
0
SEQEND
0
ENDBLK
0
BLOCK
2
PAD_38
8
0
10
0
20
0
3
PAD_38
70
64
0
POLYLINE
8
0
70
1
66
1
40
0.5
41
0.5
0
VERTEX
8
0
10
0
20
-0.25
42
1
0
VERTEX
8
0
10
0
20
0.25
42
1
0
SEQEND
0
ENDBLK
0
BLOCK
2
PAD_39
8
0
10
0
20
0
3
PAD_39
70
64
0
POLYLINE
8
0
66
1
40
0.7
41
0.7
0
VERTEX
8
0
10
-0.45
20
0
0
VERTEX
8
0
10
0.45
20
0
0
SEQEND
0
ENDBLK
0
BLOCK
2
PAD_40
8
0
10
0
20
0
3
PAD_40
70
64
0
POLYLINE
8
0
66
1
40
0.8
41
0.8
0
VERTEX
8
0
10
-0.5
20
0
0
VERTEX
8
0
10
0.5
20
0
0
SEQEND
0
ENDBLK
0
BLOCK
2
PAD_41
8
0
10
0
20
0
3
PAD_41
70
64
0
POLYLINE
8
0
66
1
40
0.350012
41
0.350012
0
VERTEX
8
0
10
-0.1999993333
20
0
0
VERTEX
8
0
10
0.1999993333
20
0
0
SEQEND
0
ENDBLK
999
*** POWERPCB  DRILL HOLE ***
0
BLOCK
2
DRIL_HOLE_0
8
0
10
0
20
0
3
DRIL_HOLE_0
70
64
0
POLYLINE
8
0
66
1
70
1
0
VERTEX
8
0
10
0
20
0
42
1
0
VERTEX
8
0
10
0
20
0
42
1
0
SEQEND
0
INSERT
2
DRIL_SYMBOL_0
8
0
10
0
20
0
0
ENDBLK
0
BLOCK
2
DRIL_HOLE_0$9
8
0
10
0
20
0
3
DRIL_HOLE_0$9
70
64
0
POLYLINE
8
0
66
1
40
0.45
41
0.45
70
1
0
VERTEX
8
0
10
-0.225
20
0
42
1
0
VERTEX
8
0
10
0.225
20
0
42
1
0
SEQEND
0
INSERT
2
DRIL_SYMBOL_0$9
8
0
10
0
20
0
0
ENDBLK
0
BLOCK
2
DRIL_HOLE_0$8
8
0
10
0
20
0
3
DRIL_HOLE_0$8
70
64
0
POLYLINE
8
0
66
1
40
0.4
41
0.4
70
1
0
VERTEX
8
0
10
-0.2
20
0
42
1
0
VERTEX
8
0
10
0.2
20
0
42
1
0
SEQEND
0
INSERT
2
DRIL_SYMBOL_0$8
8
0
10
0
20
0
0
ENDBLK
0
BLOCK
2
DRIL_HOLE_1$1999973333
8
0
10
0
20
0
3
DRIL_HOLE_1$1999973333
70
64
0
POLYLINE
8
0
66
1
40
0.5999986667
41
0.5999986667
70
1
0
VERTEX
8
0
10
-0.2999993333
20
0
42
1
0
VERTEX
8
0
10
0.2999993333
20
0
42
1
0
SEQEND
0
INSERT
2
DRIL_SYMBOL_1$1999973333
8
0
10
0
20
0
0
ENDBLK
0
BLOCK
2
DRIL_HOLE_1$699996
8
0
10
0
20
0
3
DRIL_HOLE_1$699996
70
64
0
POLYLINE
8
0
66
1
40
0.849998
41
0.849998
70
1
0
VERTEX
8
0
10
-0.4249986667
20
0
42
1
0
VERTEX
8
0
10
0.4249986667
20
0
42
1
0
SEQEND
0
INSERT
2
DRIL_SYMBOL_1$699996
8
0
10
0
20
0
0
ENDBLK
0
BLOCK
2
DRIL_HOLE_3$5
8
0
10
0
20
0
3
DRIL_HOLE_3$5
70
64
0
POLYLINE
8
0
66
1
40
1.75
41
1.75
70
1
0
VERTEX
8
0
10
-0.875
20
0
42
1
0
VERTEX
8
0
10
0.875
20
0
42
1
0
SEQEND
0
INSERT
2
DRIL_SYMBOL_3$5
8
0
10
0
20
0
0
ENDBLK
0
BLOCK
2
DRIL_HOLE_2$8
8
0
10
0
20
0
3
DRIL_HOLE_2$8
70
64
0
POLYLINE
8
0
66
1
40
1.4
41
1.4
70
1
0
VERTEX
8
0
10
-0.7
20
0
42
1
0
VERTEX
8
0
10
0.7
20
0
42
1
0
SEQEND
0
INSERT
2
DRIL_SYMBOL_2$8
8
0
10
0
20
0
0
ENDBLK
0
ENDSEC
0
SECTION
2
ENTITIES
999
*** POWERPCB  DBLAYER ***
0
INSERT
2
DBLAYERS
8
0
10
0
20
0
999
*** POWERPCB  BOARD ***
0
INSERT
2
BOARD_88
8
0
10
-98.29
20
94.46
999
*** POWERPCB  COMPONENT ***
0
INSERT
2
PART_BOT_0
8
0
10
-27.9
20
59.25
41
-1
0
INSERT
2
PART_BOT_2
8
0
10
-16.7878706667
20
66.1559346667
50
-180
41
-1
0
INSERT
2
PART_BOT_4
8
0
10
-26.0503033333
20
55.0558833333
50
-90
41
-1
0
INSERT
2
PART_BOT_5
8
0
10
-27.2269353333
20
22.8766666667
50
-270
41
-1
0
INSERT
2
PART_BOT_8
8
0
10
-17.05
20
54.35
50
-180
41
-1
0
INSERT
2
PART_BOT_10
8
0
10
-29.2121893333
20
17.5278306667
50
-270
41
-1
0
INSERT
2
PART_BOT_12
8
0
10
-93.6688266667
20
73.396708
50
-90
41
-1
0
INSERT
2
PART_BOT_17
8
0
10
-93.675
20
71.325
50
-90
41
-1
0
INSERT
2
PART_BOT_18
8
0
10
-95.6033173333
20
76.6725146667
41
-1
0
INSERT
2
PART_BOT_19
8
0
10
-95.7464653333
20
75.1966093333
50
-180
41
-1
0
INSERT
2
PART_BOT_22
8
0
10
-30.193064
20
4.1703006667
50
-90
41
-1
0
INSERT
2
PART_BOT_23
8
0
10
-28.493284
20
22.354542
50
-90
41
-1
0
INSERT
2
PART_BOT_24
8
0
10
-32.566302
20
4.176722
50
-90
41
-1
0
INSERT
2
PART_BOT_25
8
0
10
-24.24412
20
21.1162733333
50
-270
41
-1
0
INSERT
2
PART_BOT_26
8
0
10
-23.3810833333
20
21.1075113333
50
-270
41
-1
0
INSERT
2
PART_BOT_27
8
0
10
-35.69
20
6.26
50
-90
41
-1
0
INSERT
2
PART_BOT_36
8
0
10
-13.5636
20
63.3984
50
-90
41
-1
0
INSERT
2
PART_BOT_37
8
0
10
-15.975
20
63.225
50
-90
41
-1
0
INSERT
2
PART_BOT_38
8
0
10
-17.907
20
59.055
41
-1
0
INSERT
2
PART_BOT_39
8
0
10
-22.7076
20
62.1792
50
-180
41
-1
0
INSERT
2
PART_BOT_40
8
0
10
-22.7076
20
63.246
50
-180
41
-1
0
INSERT
2
PART_BOT_41
8
0
10
-19.65
20
65.4
50
-180
41
-1
0
INSERT
2
PART_BOT_42
8
0
10
-22.7076
20
64.4652
50
-180
41
-1
0
INSERT
2
PART_BOT_43
8
0
10
-22.86
20
65.3796
50
-180
41
-1
0
INSERT
2
PART_BOT_44
8
0
10
-25.875
20
66.975
50
-180
41
-1
0
INSERT
2
PART_BOT_45
8
0
10
-32.475
20
65.475
50
-180
41
-1
0
INSERT
2
PART_BOT_46
8
0
10
-32.3088
20
62.7888
41
-1
0
INSERT
2
PART_BOT_47
8
0
10
-31.9278
20
63.7794
41
-1
0
INSERT
2
PART_BOT_48
8
0
10
-26.025
20
59.25
50
-180
41
-1
0
INSERT
2
PART_BOT_49
8
0
10
-27.22
20
57.03
41
-1
0
INSERT
2
PART_BOT_50
8
0
10
-23.25
20
67.05
41
-1
0
INSERT
2
PART_BOT_51
8
0
10
-20.2692
20
61.1124
41
-1
0
INSERT
2
PART_BOT_52
8
0
10
-74.175
20
28.875
50
-90
41
-1
0
INSERT
2
PART_BOT_53
8
0
10
-76.05
20
24.975
50
-270
41
-1
0
INSERT
2
PART_BOT_54
8
0
10
-72.6
20
24.9
50
-270
41
-1
0
INSERT
2
PART_BOT_55
8
0
10
-72.075
20
29.25
41
-1
0
INSERT
2
PART_BOT_56
8
0
10
-72.075
20
30.225
41
-1
0
INSERT
2
PART_BOT_57
8
0
10
-92.7354
20
59.2836
41
-1
0
INSERT
2
PART_BOT_58
8
0
10
-91.5924
20
59.2836
41
-1
0
INSERT
2
PART_BOT_59
8
0
10
-94.2594
20
54.864
50
-270
41
-1
0
INSERT
2
PART_BOT_60
8
0
10
-93.726
20
54.864
50
-270
41
-1
0
INSERT
2
PART_BOT_61
8
0
10
-92.5068
20
54.864
50
-270
41
-1
0
INSERT
2
PART_BOT_62
8
0
10
-91.9734
20
54.864
50
-270
41
-1
0
INSERT
2
PART_BOT_63
8
0
10
-85.9536
20
54.7116
41
-1
0
INSERT
2
PART_BOT_64
8
0
10
-84.7344
20
54.7116
41
-1
0
INSERT
2
PART_BOT_74
8
0
10
-33.975
20
64.125
50
-270
41
-1
0
INSERT
2
PART_BOT_75
8
0
10
-21.717
20
54.6354
41
-1
0
INSERT
2
PART_BOT_76
8
0
10
-15.0876
20
56.6928
50
-270
41
-1
0
INSERT
2
PART_BOT_77
8
0
10
-21.9
20
56.7
50
-270
41
-1
0
INSERT
2
PART_BOT_80
8
0
10
-7.9248
20
26.67
50
-180
41
-1
0
INSERT
2
PART_BOT_81
8
0
10
-95.7
20
69.525
50
-180
41
-1
0
INSERT
2
PART_BOT_83
8
0
10
-15.825
20
27.975
41
-1
0
INSERT
2
PART_BOT_87
8
0
10
-6.858
20
14.1732
41
-1
0
INSERT
2
PART_BOT_88
8
0
10
-7.239
20
13.0302
41
-1
0
INSERT
2
PART_BOT_91
8
0
10
-13.5636
20
3.9624
41
-1
0
INSERT
2
PART_BOT_92
8
0
10
-7.3152
20
10.2108
50
-180
41
-1
0
INSERT
2
PART_BOT_93
8
0
10
-17.2212
20
18.5928
50
-90
41
-1
0
INSERT
2
PART_BOT_130
8
0
10
-8.6868
20
30.0228
50
-180
41
-1
0
INSERT
2
PART_BOT_131
8
0
10
-8.5344
20
27.8892
50
-180
41
-1
0
INSERT
2
PART_BOT_132
8
0
10
-7.0104
20
6.4008
41
-1
0
INSERT
2
PART_BOT_133
8
0
10
-7.0104
20
4.572
41
-1
0
INSERT
2
PART_BOT_136
8
0
10
-33.7566
20
14.1732
50
-180
41
-1
0
INSERT
2
PART_BOT_137
8
0
10
-33.528
20
16.1544
50
-180
41
-1
0
INSERT
2
PART_BOT_138
8
0
10
-33.7566
20
12.6492
50
-180
41
-1
0
INSERT
2
PART_BOT_139
8
0
10
-80.775
20
16.425
50
-90
41
-1
0
INSERT
2
PART_BOT_140
8
0
10
-86.625
20
20.25
41
-1
0
INSERT
2
PART_BOT_141
8
0
10
-76.125
20
28.95
50
-90
41
-1
0
INSERT
2
PART_BOT_142
8
0
10
-74.175
20
24.9
50
-270
41
-1
0
INSERT
2
PART_BOT_143
8
0
10
-84.8868
20
24.5364
50
-90
41
-1
0
INSERT
2
PART_BOT_144
8
0
10
-80.1624
20
20.8788
50
-270
41
-1
0
INSERT
2
PART_BOT_145
8
0
10
-1.7
20
79.65
50
-180
41
-1
0
INSERT
2
PART_BOT_154
8
0
10
-85.4964
20
0.4572
41
-1
0
INSERT
2
PART_BOT_161
8
0
10
-14.9352
20
86.2584
41
-1
0
INSERT
2
PART_BOT_162
8
0
10
-14.9352
20
84.8868
41
-1
0
INSERT
2
PART_BOT_163
8
0
10
-14.9352
20
83.5152
41
-1
0
INSERT
2
PART_BOT_164
8
0
10
-14.0208
20
80.9244
50
-90
41
-1
0
INSERT
2
PART_BOT_165
8
0
10
-14.5542
20
77.0382
41
-1
0
INSERT
2
PART_BOT_166
8
0
10
-14.5542
20
75.6666
41
-1
0
INSERT
2
PART_BOT_167
8
0
10
-14.5542
20
74.2188
41
-1
0
INSERT
2
PART_BOT_179
8
0
10
-32.5374
20
59.3598
41
-1
0
INSERT
2
PART_BOT_187
8
0
10
-82.53
20
-3.95
41
-1
0
INSERT
2
PART_BOT_190
8
0
10
-80.4672
20
26.8224
50
-90
41
-1
0
INSERT
2
PART_BOT_195
8
0
10
-23.4696
20
18.1356
50
-270
41
-1
0
INSERT
2
PART_BOT_196
8
0
10
-19.6596
20
18.1356
50
-270
41
-1
0
INSERT
2
PART_BOT_197
8
0
10
-10.3632
20
1.6764
50
-270
41
-1
0
INSERT
2
PART_BOT_198
8
0
10
-19.6596
20
14.478
50
-270
41
-1
0
INSERT
2
PART_BOT_208
8
0
10
-16.4592
20
56.5404
50
-270
41
-1
0
INSERT
2
PART_BOT_212
8
0
10
-11.9634
20
60.1726
50
-270
41
-1
0
INSERT
2
PART_BOT_213
8
0
10
-22.725
20
61.35
41
-1
0
INSERT
2
PART_BOT_214
8
0
10
-20.2692
20
62.1792
50
-180
41
-1
0
INSERT
2
PART_BOT_218
8
0
10
-20.2692
20
63.1698
50
-180
41
-1
0
INSERT
2
PART_BOT_219
8
0
10
-29.337
20
66.4464
50
-180
41
-1
0
INSERT
2
PART_BOT_220
8
0
10
-81.75
20
16.425
50
-90
41
-1
0
INSERT
2
PART_BOT_221
8
0
10
-86.625
20
19.35
41
-1
0
INSERT
2
PART_BOT_222
8
0
10
-84.825
20
19.35
41
-1
0
INSERT
2
PART_BOT_223
8
0
10
-81.9
20
14.55
50
-270
41
-1
0
INSERT
2
PART_BOT_224
8
0
10
-80.1624
20
19.05
50
-270
41
-1
0
INSERT
2
PART_BOT_225
8
0
10
-86.625
20
21.075
50
-180
41
-1
0
INSERT
2
PART_BOT_226
8
0
10
-19.3548
20
28.0416
50
-180
41
-1
0
INSERT
2
PART_BOT_239
8
0
10
-15.0876
20
29.8704
50
-180
41
-1
0
INSERT
2
PART_BOT_240
8
0
10
-19.3548
20
29.8704
50
-180
41
-1
0
INSERT
2
PART_BOT_241
8
0
10
-7.1628
20
7.7724
50
-180
41
-1
0
INSERT
2
PART_BOT_243
8
0
10
-79.8
20
16.425
50
-90
41
-1
0
INSERT
2
PART_BOT_244
8
0
10
-29.337
20
67.3608
41
-1
0
INSERT
2
PART_BOT_245
8
0
10
-31.95
20
66.525
41
-1
0
INSERT
2
PART_BOT_246
8
0
10
-18.9738
20
62.7126
50
-90
41
-1
0
INSERT
2
PART_BOT_247
8
0
10
-18.4404
20
60.2742
50
-180
41
-1
0
INSERT
2
PART_BOT_248
8
0
10
-34.29
20
10.4394
50
-90
41
-1
0
INSERT
2
PART_BOT_251
8
0
10
-34.5186
20
20.1168
50
-90
41
-1
0
INSERT
2
PART_BOT_252
8
0
10
-33.4518
20
20.1168
50
-90
41
-1
0
INSERT
2
PART_BOT_253
8
0
10
-34.5186
20
18.1356
50
-90
41
-1
0
INSERT
2
PART_BOT_254
8
0
10
-33.4518
20
18.1356
50
-90
41
-1
0
INSERT
2
PART_BOT_255
8
0
10
-27.975
20
66.9
50
-270
41
-1
0
INSERT
2
PART_BOT_256
8
0
10
-18.4404
20
61.1124
50
-180
41
-1
0
INSERT
2
PART_BOT_260
8
0
10
-16.1544
20
18.5928
50
-90
41
-1
0
INSERT
2
PART_BOT_261
8
0
10
-13.5636
20
2.8956
41
-1
0
INSERT
2
PART_BOT_262
8
0
10
-16.9164
20
16.9164
50
-180
41
-1
0
INSERT
2
PART_BOT_263
8
0
10
-24.4602
20
15.8496
50
-180
41
-1
0
INSERT
2
PART_BOT_264
8
0
10
-13.5636
20
1.8288
50
-180
41
-1
0
INSERT
2
PART_BOT_265
8
0
10
-22.7076
20
15.8496
41
-1
0
INSERT
2
PART_BOT_266
8
0
10
-8.001
20
2.2098
50
-90
41
-1
0
INSERT
2
PART_BOT_267
8
0
10
-24.384
20
14.3256
50
-270
41
-1
0
INSERT
2
PART_BOT_268
8
0
10
-16.002
20
14.0208
50
-270
41
-1
0
INSERT
2
PART_BOT_269
8
0
10
-17.0688
20
14.0208
50
-90
41
-1
0
INSERT
2
PART_BOT_270
8
0
10
-23.3172
20
14.3256
50
-270
41
-1
0
INSERT
2
PART_BOT_271
8
0
10
-22.2504
20
14.3256
50
-270
41
-1
0
INSERT
2
PART_BOT_283
8
0
10
-83.058
20
0.4572
41
-1
0
INSERT
2
PART_BOT_307
8
0
10
-14.859
20
78.105
50
-180
41
-1
0
INSERT
2
PART_BOT_311
8
0
10
-13.5636
20
61.1124
41
-1
0
INSERT
2
PART_BOT_312
8
0
10
-27.375
20
63.3
50
-90
41
-1
0
INSERT
2
PART_BOT_313
8
0
10
-17.8308
20
57.6072
41
-1
0
INSERT
2
PART_BOT_314
8
0
10
-96.8106
20
73.8026
50
-270
41
-1
0
INSERT
2
PART_BOT_315
8
0
10
-85.76
20
42.59
50
-270
41
-1
0
INSERT
2
PART_BOT_318
8
0
10
-12.4968
20
8.382
41
-1
0
INSERT
2
PART_BOT_328
8
0
10
-42.54
20
17.06
50
-90
41
-1
0
INSERT
2
PART_BOT_329
8
0
10
-13.2588
20
27.8892
50
-180
41
-1
0
INSERT
2
PART_BOT_330
8
0
10
-82.4484
20
19.9644
50
-180
41
-1
0
INSERT
2
PART_BOT_334
8
0
10
-72.01
20
17.11
41
-1
0
INSERT
2
PART_BOT_335
8
0
10
-5.07
20
42.49
41
-1
0
INSERT
2
PART_BOT_336
8
0
10
-4.2672
20
88.5444
41
-1
0
INSERT
2
PART_BOT_338
8
0
10
-94.1832
20
5.1816
41
-1
0
INSERT
2
PART_BOT_341
8
0
10
-2.7432
20
-4.572
41
-1
0
INSERT
2
PART_BOT_342
8
0
10
-90.9828
20
87.4776
41
-1
0
INSERT
2
PART_BOT_346
8
0
10
-27.9
20
58.09
41
-1
0
INSERT
2
PART_BOT_348
8
0
10
-28.05
20
15.075
50
-90
41
-1
0
INSERT
2
PART_BOT_351
8
0
10
-76.275
20
69
50
-180
41
-1
0
INSERT
2
PART_BOT_352
8
0
10
-76.275
20
65.175
50
-180
41
-1
0
INSERT
2
PART_BOT_353
8
0
10
-73.875
20
69
50
-180
41
-1
0
INSERT
2
PART_BOT_354
8
0
10
-73.875
20
65.25
50
-180
41
-1
0
INSERT
2
PART_BOT_355
8
0
10
-76.275
20
67.05
50
-180
41
-1
0
INSERT
2
PART_BOT_356
8
0
10
-73.875
20
67.125
50
-180
41
-1
0
INSERT
2
PART_BOT_358
8
0
10
-24.54
20
58.26
50
-180
41
-1
0
INSERT
2
PART_BOT_359
8
0
10
-24.53
20
54.6
50
-180
41
-1
0
INSERT
2
PART_BOT_360
8
0
10
-24.41
20
59.81
50
-90
41
-1
0
INSERT
2
PART_BOT_361
8
0
10
-20.77
20
59.77
50
-90
41
-1
0
INSERT
2
PART_BOT_362
8
0
10
-24.55
20
56.42
50
-180
41
-1
0
INSERT
2
PART_BOT_363
8
0
10
-22.59
20
59.79
50
-90
41
-1
999
*** POWERPCB  PCB PARAMETER ***
0
INSERT
2
PCB_PARAMS
8
0
10
0
20
0
0
ENDSEC
0
EOF
